Megadeth - World Needs A Hero Chords & Tabs

 

World Needs A Hero Chords & Tabs

Megadeth Chords & Tabs

Version: 1 Type: Bass Tab 0 ratings
1 star 2 stars 3 stars 4 stars 5 stars
comments

World Needs A Hero Bass Tab

The World Needs a Hero - Megadeth

By: Jon Craven (i_apathy@hotmail.com)
For questions, comments, feedback, an outline of the timing, write the above
address.

Note:
  -Played with a pick.

(4/4)(108 bpm)
5-string in standard tuning

R - quarter rest
r - eighth rest
\ - slide down
. - sixteenth rest
|-R-| - rest for one measure

Intro pt.1:
|----------------|----------------|----------------|------------------|
|----------------|----------------|----------------|------------------|
|----------------|----------------|----------------|------------------|
|0000R---R---R---|0000R---R---R---|0000R---R---R---|0000R---R---r-12\-|
|----------------|----------------|----------------|------------------|

Intro pt.2 (verse/fill): (x4)(0:09)
|----------------|
|----------------|
|------3-5-6-5-3-|
|0-3-5-----------|
|----------------|

Verse (x8)

Pre-chorus: (x2)(0:35)
|----------------|----------------|
|----------------|----------------|
|2---2---2-3-0-1-|2---2---2-3-2-1-|
|----------------|----------------|
|----------------|----------------|

Fill (x4)
Verse (x4)
Pre-chorus (x2)

Chorus (outro pt.1): (x4)(1:11)
|----------------|----------------|
|----------------|----------------|
|---3-----3------|---3----5-6-5-3-|
|35----35----5-3-|35--------------|
|----------------|----------------|

Verse (x4)
Pre-chorus (x2)
Chorus (x4)
[ Tab from: http://www.guitartabs.cc/tabs/m/megadeth/world_needs_a_hero_btab.html ]
Bridge: (2:05)
|----------------|----------------|----------------|----------------|
|----------------|----------------|----------------|----------------|
|----------------|----------------|----------------|----------------|
|5-\-R---R---R---|----------------|5-\-R---R---R---|----------------|
|----------------|6-\-R---R---R---|----------------|6-\-R---R---R---|

|----------------|----------------|----------------|----------------|
|----------------|----------------|7-\-R---R---R---|----------------|
|----------------|----------------|----------------|----------------|
|3-\-R---R---R---|5-\-R---R---R---|----------------|----------------|
|----------------|----------------|----------------|6-\-R---R---R---|

|----------------|
|----------------|
|-------/77777777|
|----------------|
|5-\-r-.---------|

Interlude: (x8)(2:23)
|----------------|
|----------------|
|----------------|
|3000003030000000|
|----------------|

Solo: (2:41)
|----------------|----------------|----------------|----------------|
|----------------|----------------|----------------|----------------|
|----------------|----------------|----------------|----------------|
|5555555555555555|1111111111111111|5555555555555555|1111111133333333|
|----------------|----------------|----------------|----------------|

|----------------|----------------|----------------|----------------|
|----------------|7777777777777777|----------------|----------------|
|----------------|----------------|----------------|----------------|
|5555555555555555|----------------|1111111111111111|0000000000000000|
|----------------|----------------|----------------|----------------|

|----------------|---|
|----------------|---|
|----------------|---|
|----------------|---|
|5---4---3-\---r-|-R-|

Pre-chorus (x2)
Outro pt.1 (x8)

Outro pt.2: (3:47)
|----------------|
|----------------|
|----------------|
|5-\-R---R---R---|
|----------------|

Rest till end
Comments