Megadeth - Use The Man Chords & Tabs

 

Use The Man Chords & Tabs

Megadeth Chords & Tabs

Version: 2 Type: Tab 0 ratings
1 star 2 stars 3 stars 4 stars 5 stars
comments

Use The Man Tab

Use the Man   
Performed by Megadeth

Tab by mmtla

Intro and Verse (clean, let chords ring) 8x  
 
E-|--0---0------0------0----0-0------0----0-0------0----0-0---|
B-|--0---0------0------0----0-0------0----0-0------0----0-0---|
G-|o-1---1------1-4-4--4------4-3-3--3------3-2-2--2------2--o|
D-|o-2---2------2-5-5--5------5-4-4--4------4-3-3--3------3--o|
A-|--2---2------2-5-5--5------5-4-4--4------4-3-3--3------3---|
E-|--0--------------------------------------------------------|
                 sl            sl            sl 

Chorus1 4x (w/distortion)
E-|-------------------------------------------------------|
B-|-------------------------------------------------------|
G-|o-----------------------------------------------------o|
D-|o-2---2--------5-5--5--------4-4--4--------3-3--3-----o|
A-|--2---2--------5-5--5--------4-4--4--------3-3--3------|
E-|--0---0----x-x-3-3--3--x-x-x-2-2--2--x-x-x-1-1--1--x-x-|

Chorus fill w/wah
E-|--------------------------------------------|
B-|--------------------------------------------|
G-|--------------------------------------------|
D-|-----2--0-2---0---0-2---0---0-2-------------|
A-|------------2---------2---------2--1--0-----|
E-|-0--------------------------------------3-0-|		

Verse 8x (skip 1st and 3rd if lead guitar present)

Chorus1 4x
[ Tab from: http://www.guitartabs.cc/tabs/m/megadeth/use_the_man_tab_ver_2.html ]
Bridge
E-|------------------------------------------------------|
B-|------------------------------------------------------|
G-|------------------------------------------------------|
D-|-4---4--------7-7--7--------6-6--6--------5-5--5------|
A-|-4---4--------7-7--7--------6-6--6--------5-5--5------|
E-|-2---2----x-x-5-5--5--x-x-x-4-4--4--x-x-x-3-3--3--x-x-|

Repeat Chorus1 - End on E power chord - hold.
 

Solo rhythm guitar 4x - half time feel
E-|------------------------------------------------|
B-|------------------------------------------------|
G-|o----------------------------------------------o|
D-|o-2----------5----------4----------3-----------o|
A-|--2---7-5-7--5---7-5-7--4---7-5-7--3---7-5-7----|
E-|--0----------3----------2----------1------------|
  

Chorus2 
E-|----------------------------|----------------------------|  
B-|----------------------------|----------------------------|
G-|---------2------------------|---------2------------------|
D-|-2---4---2------------------|-2---4---2---------------2~-|
A-|-2---4---0---3--2-3-2-3-2-3-|-2---4---0--3--2-3-2-3-2----|
E-|-0---2----------------------|-0---2----------------------|

E-|----------------------------|----------------------------|  
B-|----------------------------|----------------------------|
G-|---------2------------------|---------2------------------|
D-|-2---4---2------------------|-2---4---2-------------2~~--|
A-|-2---4---0---3--2-3-2-3-2-3-|-2---4---0--3--2-3-2-3------|
E-|-0---2----------------------|-0---2----------------------|

Repeat Solo Rhy. Guitar 4x    End on E power chord.
Comments