Megadeth - Trust Chords & Tabs

 

Trust Chords & Tabs

Megadeth Chords & Tabs

Version: 4 Type: Tab 0 ratings
1 star 2 stars 3 stars 4 stars 5 stars
comments

Trust Tab

Megadeth - Trust

Tabbed by Jack (Spooky Kid)
Standard Tuning (EADGBe)
Guitarists: Marty Freidman, Dave Mustaine
Trust is taken from Megadeth's 1997 release "Cryptic Writings".

Now enjoy!

Chorus:
Gt.1:
|-------------------------------------------------|
|-------------------------------------------------|
|9-9-9-9-9-9-9-9-9-9-9-9-9-9-9-9-9-9-7-7-7-7---&-&|
|-------------------------------------------------|
|7-7-7-7-7-7-7-7-7-7-7-7-7-7-7-7-7-7-5-5-5-5---#-#|
|-------------------------------------------------|

Gt. 2,3:
|-------------------------------------------------|
|-------------------------------------------------|
|-------------------------------------------------|
|-------------------------------------------------|
|--7-------7-------7-------7-------7-------5------|
|0---8-7-0---8-7-0---8-7-0---8-7-0---6-5-0---0-6-8|

Verse:
Gt. 1,2,3:
|-------------------------------------------------------|
|-------------------------------------------------------|
|9---------------------------2--------------------------|
|9-------------5-------------2-------------3------------|
|7-------------3-------------0-------------3------------|
|--0-0-0-0-0-0---0-0-0-0-0-0---0-0-0-0-0-0-1-0-0-0-0-0-0|

|-------------------------------------------------------|
|-------------------------------------------------------|
|9---------------------------2--------------------------|
|9-------------5-----4-------2-------------3------------|
|7-------------3-----2-------0-------------3------------|
|--0-0-0-0-0-0---0-0---0-0-0---0-0-0-0-0-0-1-0-0-0-0-0-0|

|-------------------------------------------------------|
|-------------------------------------------------------|
|9---------------------------2--------------------------|
|9-------------5-------------2-------------3------------|
|7-------------3-------------0-------------3------------|
|--0-0-0-0-0-0---0-0-0-0-0-0---0-0-0-0-0-0-1-0-0-0-0-0-0|

|-------------------------------------------------------|
|-------------------------------------------------------|
|9---------------------------2--------------------------|
|9-------------5-----4---7---2-------------3------------|
|7-------------3-----2---5---0-------------3------------|
|--0-0-0-0-0-0---0-0---0---0---0-0-0-0-0-0-1-0-0-0-0-0-0|

Chorus

Bridge
Gt. 1:
|----------------------------------------2----------|
|--------------0-----------0-------------3----------|
|0-------------0-----------0-------------2----------|
|2-------------2-----------2-------------0----------|
|2-------------3-----------4------------------------|
|0-------------------------------------------------|

Gt. 2:
|--------------------------------------------3---3-5|
|5-----5h6-5h6p5-----6-----4-------4-3-----3---3----|
|----5-----------5-----5-----5---5-------3----------|
|--7---------------7-----7-----3-------5------------|
|---------------------------------------------------|
|---------------------------------------------------|
[ Tab from: http://www.guitartabs.cc/tabs/m/megadeth/trust_tab_ver_4.html ]
Gt. 3:
|---------------------------------------------------|
|1-----1-3-1-3-1---------1--------------------------|
|----2-----------2-----2-----2/5-----------3p2h3----|
|--2---------------2-1-----------7/5-------------5--|
|--------------------------3-------------5---------5|
|---------------------------------------------------|

Gt. 2:
|6-------------------------0----------------------------|
|--6---6-----------------6---6-----------5-5h8-5h8p5----|
|----6---6p5---6-------5-------5-------3-------------6--|
|------------8---8---7-----------7---5-----------------7|
|------------------0---------------0--------------------|
|-------------------------------------------------------|

Gt. 3:
|-------------------------------------------------------|
|----------------------------------------8-8h$-8h$p8----|
|--------6p5-6-------------------------6-------------9--|
|--------------8-------7---7---------------------------$|
|5/8-------------8-8/7-------------0-7------------------|
|------6------------------------------------------------|

Interlude
|---------------------------------|
|---------------------------------|
|--------------------0-------0---2|
|----0-------0-----0-------0-----2|
|--0-------0-----1-----1-0-------0|
|1-----1-0-----0---------------3b-|

Final Solo
|-----------------------------------------------------------------|
|--------11b-----------12b-----------------16-17-17-17-17-17-17-17|
|9-9-9---------9-9-9---------9-9-9------16------------------------|
|------9-----9-------9-----9-------9-17---------------------------|
|-----------------------------------------------------------------|
|-----------------------------------------------------------------|

|---------------------15-------18b-18-17-15----------------15h19p15----15-19|
|---------------17-17----17-----------------17-17----17/19----------19------|
|2b-2b-2b-2b-16-------------16--------------------16------------------------|
|---------------------------------------------------------------------------|
|---------------------------------------------------------------------------|
|---------------------------------------------------------------------------|

|22-22-22-22-22-22-22-22---12-11----------11-12-11----------11-14-12------|
|------------22-22-22-22-5-------12-10-12----------12-10-12----------15-12|
|-------------------------------------------------------------------------|
|-------------------------------------------------------------------------|
|-------------------------------------------------------------------------|
|-------------------------------------------------------------------------|

|---------12-14-12----------------12-14-12----------------12-14-12-------|
|---12-15----------15-12----12-15----------15-12----12-15----------15-12-|
|14----------------------14----------------------14----------------------|
|------------------------------------------------------------------------|
|------------------------------------------------------------------------|
|------------------------------------------------------------------------|

|--------------------------|
|15-12-15-12-15-12-15-12-15|
|--------------------------|
|--------------------------|
|--------------------------|
|--------------------------|


Email all comments, complaints, commendments, and death threats to
morbidcorpse@gmail.com.

Please note that this tab prints out to be 2 pages long.
Comments