Megadeth - Trust Chords & Tabs

 

Trust Chords & Tabs

Megadeth Chords & Tabs

Version: 1 Type: Tab 2 ratings
1 star 2 stars 3 stars 4 stars 5 stars
comments

Trust Tab

   
Key:
  ~=vibrato
  b=bend
  /=slide
  p=pull-off
  h=hammer-on


  Chorus:    4x
e/--------------------------------------------------------
b/--------------------------------------------------------
g/--------------------------------------------------------
d/------2---------------2--------------2------------------
a/--------3--2~------------1--0---------------1---1/3~----
E/---0---------------0-----------0---------0--------------

e/--------------------------------------------------------
b/--------------------------------------------------------
g/--------------------------------------------------------
d/-------------------5--------------2---------------------
a/--2----------------3--------------0---------------3-----
E/--0---0-0-0-0-0-0-----0-0-0-0-0-0----0-0-0-0-0-0--1-----

e/--------------------------------------------------------
b/--------------------------------------------------------
g/-----------------4---------------------------4----------
d/-----------------2--------------5------4-----2-----2----
a/--------------------------------3------2-----------0----
E/---1-1-1-1-1-1-----0-0-0-0-0-0----0-0-----0-----0-------

e/--------------------------------------------------------
b/--------------------------------------------------------
g/--------------------------------------------------------
d/--------------------------------------------------------
a/------------------3-------------------------------------
E/---0-0-0-0-0-0----1---1-1-1-1-1-1-1---Back 2 Chorus-----

e/--------------------------------------------------------
b/---5-------5--6---5h6p5---------6------4-------4--3-----
g/---------5--------------5---------5------5---5----------
d/------7---------------------7-------7------7------------
a/--------------------------------------------------------
E/--------------------------------------------------------


e/-----------3--------5--6---6p5---------------0----------
b/--------3----3-----------------6-----------6---6--------
g/------3---------3------------------------5-------5------
d/---5-----------------------------------7-----------7----
a/-------------------------------------0------------------
E/--------------------------------------------------------
[ Tab from: http://www.guitartabs.cc/tabs/m/megadeth/trust_tab.html ]
e/--------------------------------------------------------
b/------------5---5/8---8/5-------------------------------
g/---------3-----------------6----------------------------
d/------5-----------------------7~~~---------0--------0---
a/---0------------------------------------0---------0-----
E/--------------------------------------1-------1-0-------

e/--------------------------------------------------------
b/--------------------------------------------------------
g/------------0------------0------------------------------
d/---------0------------0------------------on & on--------
a/------1--------1---0---------5----7---------------------
E/---0-------------------------3----5---5-5-5-5-5-5-5-5-5-


e/--------------------------------------------------------
b/---------------11b--------------12b----------------11---
g/---9~---9------------9~--9--------------9~--9---12------
d/-----------9----------------9--------9------------------
a/--------------------------------------------------------
E/--------------------------------------------------------

e/---11---12----12/15---14b--14b--14b---------------------
b/--------------------------------------------------------
g/---------------------------------------2b-2b-2b-2b-2~/--
d/--------------------------------------------------------
a/--------------------------------------------------------
E/--------------------------------------------------------

e/------------15-----------17b----------------------------
b/---17--17~-------17-------------17~---------------------
g/--------------------15---------------15-----------------
d/--------------------------------------------------------
a/--------------------------------------------------------
E/--------------------------------------------------------

                                          *Artificial 
                                          harmonic (squeel)
e/-------15---19-------15---19----19b---------------------
b/----17-----------17-------------------------------------
g/-----------------------------------------*12--12--12--12
d/--------------------------------------------------------
a/--------------------------------------------------------
E/--------------------------------------------------------

I don't know that last bit of the 
solo but that should get you where 
you need to be....don't you think?!!
well tommy heres the tab learn it!! hahaha
Comments