Megadeth - Tornado Of Souls Chords & Tabs

 

Tornado Of Souls Chords & Tabs

Megadeth Chords & Tabs

Version: 1 Type: Bass Tab 0 ratings
1 star 2 stars 3 stars 4 stars 5 stars
comments

Tornado Of Souls Bass Tab

Tornado of Souls by "Megadeth"
>From the album "Rust in Peace"
Transcribed by Abate Alessandro
For any comments or corrections please e-mail me at: Sabbey@tin.it
 
    Intro                                                                         
G-------------------------------------|----------------------------------|--
D-------------------------------------|----------------------------------|--
A-----2^------------------------------|-------------------2^---2^---2^---|--
E-------------------------------------|----------------------------------|--
                                                                           

                                                                           
G-------------------------------------|----------------------------------|--
D-------------------------------------|----------------------------------|--
A-----2^------------------------------|-------------------2^---2^---2^---|--
E-------------------------------------|----------------------------------|--
                                                                           

                                                                           
G-------------------------------------|----------------------------------|--
D-------------------------------------|----------------------------------|--
A-----2^------------------------------|-------------------2^---2^---2^---|--
E-------------------------------------|----------------------------------|--
                                                                           

                                                                           
G-------------------------------------|----------------------------------|--
D-------------------------------------|--------------------------9-------|--
A-----2^------------------------------|----------------------------------|--
E-------------------------------------|----------------------------------|--
                                                                           

                                                                           
G---------------------------------------|---------------------------------|--
D---------------------7-----------------|---------------------------------|--
A-------9-----------------9-------------|-7h8p7---5h7p5---4h5p4---3---2^--|--
E-----------10----7-----------10----7---|---------------------------------|--
                                                                           

       2X                                                                    
G---------------------------------------|---------------------------------|--
D---------------------------------------|---------------------------------|--
A---------------2---2---2---------------|-----------------------------2^--|--
E---------------------------2---2---3---|-3---0---0---2---2---3---0-------|--
                                                                           

          Verse  4X                                                
G----------------------------|----------------------------------|--
D----------------------------|----------------------------------|--
A----2---2---2---------------|-----------------------------2^---|--
E----------------2---2---3---|-3---0---0---2---2---3---0--------|--
                                                                           

                                                                           

    Not for the money                  
G---------------------------|----------------------------|--
D---------------------------|----------------------------|--
A---2---2-------------------|-------------3-----2--------|--
E-----------2---3-------2---|-----5---5------------------|--
                                                                           
    Not for the fame
G--------------------------|-----------------------------|--
D--------------------------|-------------2-----1---------|--
A--2---2-------------------|-----------------------------|--
E----------2---3-------2---|-----5---6-------------------|--

    Not for the power                    
G-------------------------------------|------------------|--
D-------------------------------------|------------------|--
A--2---3------------------------------|------------------|--
E-----------2-----3-----1--1--1--1--1-|----3-----4^------|--
                                                                           

    Just no more games                                                                       
G-------------------------------------|------------------|--
D-------------------------------------|------------------|--
A--2---3------------------------------|------------------|--
E-----------2-----3-----1--1--1--1--1-|----4-------------|--
                                                                           

    Chorus  4X                                       
G-||--------------------------------------------|-------------------------|--
D-||-2^-----------------------------------------|-------------------------|--
A-||-------------2-------3----------------------|----2----0-----------1---|--
E-||------------------------------5--5--5--5--5-|-------------------------|--
                                                                           

                                                                           
G-------------------------------------------------|--
D-------------------------0------0-----------3----|--
A-----2--------4----------------------------------|--
E-------------------------------------------------|--
                                                                           

    Blow me away!  2X                                                        
G------------------------------|----------------------------------|--
D------------------------------|----------------------------------|--
A------2---2---2---------------|-----------------------------2^---|--
E------------------2---2---3---|-3---0---0---2---2---3---0--------|--

                                                                           
    Verse  4X                                                
G----------------------------|----------------------------------|--
D----------------------------|----------------------------------|--
A----2---2---2---------------|-----------------------------2^---|--
E----------------2---2---3---|-3---0---0---2---2---3---0--------|--


    Not from the years                    
G---------------------------|----------------------------|--
D---------------------------|----------------------------|--
A---2---2-------------------|-------------3-----2--------|--
E-----------2---3-------2---|-----5---5------------------|--
                                                                           
    Not from the use
G--------------------------|-----------------------------|--
D--------------------------|-------------2-----1---------|--
A--2---2-------------------|-----------------------------|--
E----------2---3-------2---|-----5---6-------------------|--

    Not from the tears                    
G-------------------------------------|------------------|--
D-------------------------------------|------------------|--
A--2---3------------------------------|------------------|--
E-----------2-----3-----1--1--1--1--1-|----3-----4-------|--
                                                                           

    Just self abuse                                                                       
G-------------------------------------|------------------|--
D-------------------------------------|------------------|--
A--2---3------------------------------|------------------|--
E-----------2-----3-----1--1--1--1--1-|----4-------------|--
                                                                           

    Chorus  4X   The 4th time play (*)                                     
G-||--------------------------------------------|-------------------------|--
D-||-2^-----------------------------------------|-------------------------|--
A-||-------------2-------3----------------------|----2----0-----------1---|--
E-||------------------------------5--5--5--5--5-|-------------------------|--
                                                                           

                                                                           
G-------------------------------------------------|--
D-------------------------0------0-----------3----|--
A-----2--------4(*)-------------------------------|--
E-------------------------------------------------|--


              Blow me away!        Who's...                                                      
G--------------------------------------------------------|-------------------------|--
D------------2------2------3-------5^--------------------|------5^-----------------|--
A-(*)-------------------------------------2--------5^----|-------------2--------5^-|--
E--------------------------------------------------------|-------------------------|--
                                                                           

                               Who's...                                               
G------------------------------------------------|----------------------------|--
D------------------0--------5^-------------------|--------5^------------------|--
A---3------2-----------------------2--------5^---|---------------2--------5^--|--
E------------------------------------------------|----------------------------|--
                                                                           

                               Who's...                                               
G------------------------------------------------|----------------------------|--
D------------------0--------2^-------------------|--------2^------------------|--
A---3------2--------------------------------3^---|------------------------3^--|--
E----------------------------------6-------------|---------------6------------|--
                                                                           

                                                                           
G------------------------------------------------|----------------------------|--
D------------------0--------5^-------------------|--------5^------------------|--
A---3------2-----------------------2--------5^---|---------------2--------5^--|--
E------------------------------------------------|----------------------------|--
                                                                           

                                                                           
G-------------------------------|--
D------------------2--------7\--|--
A---3-------2-------------------|--
E-------------------------------|--
                                                                           

                                                                           
     Intro riff                                              
G-----------|-------------------------------|----------------------------|--
D-----------|-------------------------------|----------------------------|--
A-------2^--|-------------------------------|----------------------------|--
E-----------|-------------------------------|----------------------------|--
                                                                           

                                                                           
----------|---------------------------------|----------------------------|--
D---------|---------------------------------|----------------------------|--
A---------|---------------------------------|----------------------------|--
E-----3^--|---------------------------------|----------------------------|--
                                                                           

                                                                           
G---------|---------------------------------|----------------------------|--
D---------|---------------------------------|----------------------------|--
A---------|---------------------------------|----------------------------|--
E-----0---|---------------------------------|----------------------------|--
                                                                           

                                                                           
G---------|---------------------------------|----------------------------|--
D---------|---------------------------------|----------------------------|--
A---------|---------------------------------|-0--------------------------|--
E-----2^--|---------------------------------|----------------------------|--
                                                                           

                                                                           
G---------|---------------------------------|----------------------------|--
D---------|---------------------------------|----------------------------|--
A-----0---|------------------------2^-------|----------------------------|--
E---------|---------------------------------|----------------------------|--
                                                                           

                                                                           
G---------|---------------------------------|----------------------------|--
D---------|---------------------------------|----------------------------|--
A---------|---------------------------------|----------------------------|--
E-----3^--|---------------------------------|---------------------0---0--|--
                                                                           

                                                                          
G---------|---------------------------------|----------------------------|--
D---------|---------------------------------|----------------------------|--
A---------|---------------------------------|----------------------------|--
E-----0---|---------------------------------|----------------------------|--
                                                                           
[ Tab from: http://www.guitartabs.cc/tabs/m/megadeth/tornado_of_souls_btab.html ]
                                            
G---------|---------------------------------|----------------------------|--
D---------|---------------------------------|----------------------------|--
A---------|-----------------------------0---|---------------------0---1--|--
E---2^----|---------------------------------|----------------------------|--
                                                                           

                                                                           
G---------|---------------------------------|----------------------------|--
D---------|---------------------------------|----------------------------|--
A---2^----|---------2---2---2---2---2---2---|-2---2---2---2---2---2---2--|--
E---------|---------------------------------|----------------------------|--
                                                                           

                                                                           
G---------|----------------------------------|----------------------------|--
D---------|----------------------------------|----------------------------|--
A---------|----------------------------------|----------------------------|--
E---3^----|----------3---3---3---3---3---3---|-3---3---3---3---3---3---3--|--
                                                                           

                                                                           
G---------|---------------------------------|----------------------------|--
D---------|---------------------------------|----------------------------|--
A---------|---------------------------------|----------------------------|--
E-----0---|---------0---0---0---0---0---0---|-0---0---0---0---0---0---0--|--
                                                                           

                                                                           
G---------|---------------------------------|----------------------------|--
D---------|---------------------------------|----------------------------|--
A---------|-----------------------------0---|-0---0---0---0---0---0---1--|--
E-----2^--|---------2---2---2---2---2-------|----------------------------|--
                                                                           

            The land of opportunity... 2X                                    
G---------|---------------------------------|----------------------------|--
D---------|---------------------------------|----------------------------|--
A-----2^--|---------2---2---2---2---2---2---|-2---2---2---2---2---2---2--|--
E---------|---------------------------------|----------------------------|--
                                                                           

                                                                           
G---------|---------------------------------|----------------------------|--
D---------|---------------------------------|----------------------------|--
A---------|---------------------------------|----------------------------|--
E-----3---|---------3---3---3---3---3---3---|-3---3---3---3---3---3---3--|--
                                                                           

                                                                           
G---------|---------------------------------|----------------------------|--
D---------|---------------------------------|----------------------------|--
A---------|---------------------------------|----------------------------|--
E-----3---|---------0---0---0---0---0---0---|-0---0---0---0---0---0---0--|--
                                                                           

                                                                           
G-----------|-----------------------------------|------------------------|--
D-----------|-----------------------------------|------------------------|--
A-----------|-------------------------------0---|-0---0---0---0---0---1--|--
E-----2-----|-------2---2---2---2---2---2-------|------------------------|--
    
   
  Repeat 4X   (play the *7 only the first time)
G--------------------------------------------------------------|--
D-----------------8p5---7p5------2-3------------------------0--|--
A---5---------*7--------------------------5--7h8-------5-7-----|--                                                                           
E--------------------------------------------------------------|--
                                                                           
                                                                           
   Guitar Solo  6X 
G---------|---------------------------------|----------------------------|--
D---------|---------------------------------|----------------------------|--
A---2^----|---------2---2---2---2---2---2---|-2---2---2---2---2---2---2--|--
E---------|---------------------------------|----------------------------|--
                                                                           

                                                                           
G---------|---------------------------------|----------------------------|--
D---------|---------------------------------|----------------------------|--
A---------|---------------------------------|----------------------------|--
E---3^----|---------3---3---3---3---3---3---|-3---3---3---3---3---3---3--|--
                                                                           

                                                                           
G---------|---------------------------------|----------------------------|--
D---------|---------------------------------|----------------------------|--
A---------|---------------------------------|----------------------------|--
E-----0---|---------0---0---0---0---0---0---|-0---0---0---0---0---0---0--|--
                                                                           

                                                                           
G---------|---------------------------------|-----------------------------|--
D---------|---------------------------------|-----------------------------|--
A---------|-----------------------------0---|-0---0---0---0---0---0---1^--|--
E-----2^--|---------2---2---2---2---2-------|-----------------------------|--



   Can't say what's on my mind...  2X                    
G-----------------------------------|--------------------------------|--
D-----------------------------------|--------------------------------|--
A---2---2---2---2---2---2---2---2---|-2---2---2---2---2---2---2---2--|--
E-----------------------------------|--------------------------------|--
                                                                           

                                                                           
G-----------------------------------|--------------------------------|--
D-----------------------------------|--------------------------------|--
A-----------------------------------|--------------------------------|--
E---3---3---3---3---3---3---3---3---|-3---3---3---3---3---3---3---3--|--
                                                                           

                                                                           
G-----------------------------------|--------------------------------|--
D-----------------------------------|--------------------------------|--
A-----------------------------------|--------------------------------|--
E---0---0---0---0---0---0---0---0---|-0---0---0---0---0---0---0---0--|--
                                                                           

                                                                           
G-----------------------------------|--------------------------------|--
D-----------------------------------|--------------------------------|--
A-----------------------------------|-0---0---0---0---0---0---0---1--|--
E---2---2---2---2---2---2---2---2---|--------------------------------|--
                                                                           

    Repeat 4X    (play the *2^ only the first time)                                                          
G----------------------------------------------------------|--
D------------------------1--------------------------1------|--
A---*2^---------------1-----1--2^----------------------2^--|--
E---------0--0--0--0----------------0--0--0--0--0----------|--
                                                                           

    I warn you of the fate...                                                                       
G------------------------------------|-------------------------------------|--
D------------------------------------|-------------------------------------|--
A-2--2--2--2--2--2--2--2--2--2--2--2-|-5--5--5--5--5--5--5--5--5--5--5--5--|--
E------------------------------------|-------------------------------------|--
                                                                           

                                                                           
G------------------------------------|--------------------------------------|--
D------------------------------------|--------------------------------------|--
A-7--7--7--7--7--7--7--7--7--7--7--7-|-9--10-------------9--11--12--12--12--|--
E------------------------------------|--------12--10--9---------------------|--
                                                                           

                                             
G----------------------------------|-----------------------------------------|--
D----------------------------------|-----------------------------------------|--
A--12--12--12--12--12--12---12--12-|-----14--14--14--14--14--14--14--14--14--|--
E----------------------------------|-12--------------------------------------|--
                                                                           

                                                                           
G-------------------------------------|-------------------------------------|--
D--------------10--12--12--12--12--12-|-12--12--12--12--12--12--12------14--|--
A------12--10-------------------------|-----------------------------12------|--
E--12---------------------------------|-------------------------------------|--
                                                                           

                                                                           
G-----------------------------------------|-------------------------------------|--
D--14--14--14--14--14--14--14--14--14--14-|-----17--17--17--17--17--17------19--|--
A-----------------------------------------|-17--------------------------19------|--
E-----------------------------------------|-------------------------------------|--
                                                                           

                                                                           
G-----------------------------------------|--------------------------------------|--
D--19--19--19--19--19--1------------------|----1--------------------------1------|--
A-------------------------2^--------------|-1-----1--2^----------------------2^--|--
E------------------------------0--0--0--0-|---------------0--0--0--0--0----------|--
                                                                           

                                                                           
G-----------------------------------------|--------------------------------------|--
D-----------------1-----------------------|--1----------------------1------------|--
A--------------1-----1--2^----------------|-----2^---------------1-----1--2^-----|--
E--0--0--0--0---------------0--0--0--0--0-|----------0--0--0--0---------------0--|--
                                                                           

                                                                 Outro          
G-----------------------------------------------|--------------------------------|--
D---------------1----------------------1--------|-----------------1--------------|--
A------------------2^---------------1-----1--2^-|--------------------2^----------|--
E--0--0--0--0-----------0--0--0--0--------------|-0--0--0--0--0------------------|--
                                                                           

                                                                           
G----------------------------------------|--------------------------------------|--
D----------------------------------------|--------------------------------------|--
A----------------------------------------|--------------------------------------|--
E----------2------------------3----------|---------------------------2----------|--
                                                                           

                                                                           
G----------------------------------------|--------------------------------------|--
D----------------------------------------|--------------------------------------|--
A----------------------------------------|--------------------------------------|--
E--------------0-------------------------|----------------2---------------------|--
                                                                           

                                                                           
G----------------------------------------|--------------------------------------|--
D----------------------------------------|--------------------------------------|--
A----------------------------------------|--0--------------------------------2^-|--
E---------3------------------------------|--------------------------------------|--
                                                                           

                                                                           
G----------------------------------------|--------------------------------------|--
D----------------------------------------|--------------------------------------|--
A----------------------------------------|--------------------------------------|--
E----------------------2-----------------|----------------------------3---------|--



G---------------------------------------------|---------------------------------|--
D---------------------------------------------|--9---7---5-------7---5----------|--
A---------------------0-----------------------|--------------7-----------7------|--
E---------------------------------------------|------------------------------9--|--
                                                                           

                                                                           
G----------------------------------|--
D----------------------------------|--
A--7h8p7---5h7p5---4h5p4---3---2\--|--
E----------------------------------|--

Comments