Megadeth - This Was My Life Chords & Tabs

 

This Was My Life Chords & Tabs

Megadeth Chords & Tabs

Version: 1 Type: Bass Tab 0 ratings
1 star 2 stars 3 stars 4 stars 5 stars
comments

This Was My Life Bass Tab

This Was My Life - Megadeth
Jon Craven (i_apathy@hotmail.com; www.homestead.com/larsramirez)
(enters after 3 measures)

Riff 1:
G:-------------|-------------|-----------------|-----------------|-------------|-------------|
D:-------------|-------------|-----------------|-----------------|-------------|-------------|
A:-------------|-------------|-/7\-------------|-----------------|-------------|-------------|
E:-7-6-5***-3*-|-5-4-3***-1*-|-----0-0-0-0-0-0-|-0-0-0-0-0-0-0-0-|-7-6-5**-3**-|-5-4-3**-1**-|

Riff 2:
G:------------|------------|------------|------------|------------|------------|------------|
D:------------|------------|------------|------------|------------|------------|------------|
A:------------|-3--R--R--R-|-4--R--R--R-|-5--R--6--R-|-7--R--R--R-|-3--R--R--R-|------------|
E:-0--R--R--R-|------------|------------|------------|------------|------------|-2--R--R--R-|

G:-----------------|
D:-----------------|
A:-2-0-----0-------|
E:-----3-2---3-2-1-|

Riff 3: (x2)
G:-----------------|----------------|----------------|---------------|----------------|
D:-----------------|----------------|----------------|---------------|----------------|
A:-----------------|-3--3-3-3-3-3-3-|-4--4-4-4-4-4-4-|-5--5-5-6--6-6-|-7--7-7-7-7-5-4-|
E:-1-0-0-0-0-0-0-0-|----------------|----------------|---------------|----------------|

G:----------------|----------------|-----------------|
D:----------------|----------------|-----------------|
A:-3--3-3-3-3-1-0-|----------------|-2-0-----0-------|
E:----------------|-2--2-2-2-2-2-2-|-----3-2---3-2-1-|

Fill:
G:------------|
D:------------|
A:------------|
E:-0--R--R--R-|

Riff 4:
G:-------0---------|-----------------|----------------|----------------|-------0---------|
D:-2-1-2---4-2-----|-----------------|----------------|----------------|-2-1-2---4-2-----|
A:-------------2-3-|-*-3-3-3-3-3-3-3-|----------------|-2--2-2-2-2-2-2-|-------------2-3-|
E:-----------------|-----------------|-2--2-2-2-2-2-2-|----------------|-----------------|
[ Tab from: http://www.guitartabs.cc/tabs/m/megadeth/this_was_my_life_btab.html ]
G:-----------------|----------------|----------------|-----------------|-----------------|
D:-----------------|----------------|----------------|-----------------|-----------------|
A:-*-3-3-3-3-3-3-3-|----------------|-2--2-2-2-2-2-2-|-/7\-------------|-----------------|
E:-----------------|-2--2-2-2-2-2-2-|----------------|-----0-0-0-0-0-0-|-0-0-0-0-0-0-0-0-|

Riff 1
Riff 3 (x2)
Fill
Riff 4
Riff 1

Riff 5: (x2)
G:----------------|----------------|----------------|----------------|----------------|
D:----------------|----------------|----------------|----------------|----------------|
A:-7--------------|-3--------------|-4--------------|-5--------------|-7--------------|
E:----0-0-0-0-0-0-|----0-0-0-0-0-0-|----0-0-0-0-0-0-|----0-0-0-0-0-0-|----0-0-0-0-0-0-|

G:----------------|----------------|---------------|
D:----------------|----------------|---------------|
A:-3--------------|----------------|-2--3--2-0-----|
E:----0-0-0-0-0-0-|-2--0-0-0-0-0-0-|-----------3-2-|

Riff 6:
G:---------------|---------------|---------------|---------------|---------------|---------------|
D:---2~~-----2---|---2~~-----2---|---2~~-----2---|---2~~---------|---2~~-----2---|---2~~-----2---|
A:-------2-----2-|-------3-----3-|-------4-----4-|-------4---6---|-------2-----2-|-------3-----3-|
E:-0-------3-----|-0-------3-----|-0-------3-----|-0-------3---5-|-0-------3-----|-0-------3-----|

G:---------------|---------------|
D:---2~~-----2---|---2~~---------|
A:-------4-----4-|-------2-0-----|
E:-0-------3-----|-0---------3-2-|

Riff 7: (x4)
G:-------------|-------------|-------------|-------------|
D:-------------|-------------|-------------|---------2-2-|
A:-------------|-------------|-------------|-------------|
E:-0**-0-3**-3-|-2**-2-1**-0-|-0**-0-3**-3-|-2**-2-1-----|

Riff 8: (x4)
G:------------|------------|------------|------------|
D:------------|------------|------------|------------|
A:------------|------------|------------|------------|
E:-0--0--0--0-|-3--3--3--3-|-2--2--2--2-|-1--1--1--1-|

End:
G:------------|
D:------------|
A:------------|
E:-0--R--R--R-|

Break till end
Comments