Megadeth - The Killing Road Chords & Tabs

 

The Killing Road Chords & Tabs

Megadeth Chords & Tabs

Version: 3 Type: Tab 0 ratings
1 star 2 stars 3 stars 4 stars 5 stars
comments

The Killing Road Tab

   
                            MEGADETH
Tune Down 1/2 step:     THE KILLING ROAD
(1)=Eb (4)=Db
(2)=Bb (5)=Ab
(3)=Gb (6)=Eb

|------------------------------------------------------------------|
|------------------------------------------------------------------|
|------------------------------------------------------------------|
|------------------------------------------------------------------|
|------7-----8-----7-----8---5--------7-----8-----7-----8---5------|
|--0-0---0-0---0-0---0-0---0------0-0---0-0---0-0---0-0---0--------|
   pm=   ===   ===   ===   = ~~~~ ===   ===   ===   ===   = ~~~~
band enters
|------------------------------------------------------------------|
|------------------------------------------------------------------|
|------------------------------------------------------------------|
|------9-----10----9-----10--7--------9-----10----9-----10--7------|
|------7-----8-----7-----8---5--------7-----8-----7-----8---5------|
|--0-0---0-0---0-0---0-0---0------0-0---0-0---0-0---0-0---0--------|
   pm=   ===   ===   ===   = ~~~~ ===   ===   ===   ===   = ~~~~

|---------------------------------------------------------------------|
|---------------------------------------------------------------------|
|----------------------------------------------------------5-------4--|
|-----------------------------5---------3-----3---3/-----5-------4----|
|------7-----8-----7---5-------------------------------7-------6------|
|--0-0---0-0---0-0---8---7------3-2-1-1---1-1---1----8-------7--------|
   pm=   ===   ===   =   ~~~~   =======   ===   =    =====   =====

|---------------------------------------------------------------------|
|---------------------------------------------------------------------|
|----------------------------------------------------------5-------4--|
|-----------------------------5---------3-----3---3/---2-5-----1-4----|
|------7-----8-----7---5-----------------------------3-------2--------|
|--0-0---0-0---0-0---8---7------3-2-1-1---1-1---1---------------------|
   pm=   ===   ===   =   ~~~~   =======   ===   =    =====   =====

|-----------------------------------------|
|-----------------------------------------|
|-----------------------------------------|
|----9------------------9-----------------|
|----7--9--8--5---3-2---7--9--8--5---3-2--|
|--0----7--6--3---1-0-0----7--6--3---1-0--|
                      pm

|-------------------------------------------------------------------|
|-------------------------------------------------------------------|
|--------------------------------------------------------5-------4--|
|---------------------------5---------3-----3---3/-----5-------4----|
|----7-----8-----7---5-------------------------------7-------6------|
|--0---0-0---0-0---8---7------3-2-1-1---1-1---1----8-------7--------|
   pm  ===   ===   =   ~~~~   =======   ===   =    =====   =====

|--------------------|---------------|----------------|-----------------|
|--------------------|---------------|----------------|-----------------|
|--------------------|---------------|----------------|-----------------|
|--------------------|---------------|----------------|--------x\-------|
|--------------------|---------------|----------------|--------x\---9---|
|--------------------|---------------|----------------|-----------------|
|
|
|
|--------------------|---------------|----------------|-----------------|
|--------------------|---------------|----------------|-----------------|
|--------------------|---------------|----------------|-----------------|
|--------------------|---------5-----|----------------|-----------------|
|------7-----8-----7-|--5------------|7-8---5-7---3-5-|--2-3---2-2-0-4--|
|--0-0---0-0---0-0---|8---7------3-2-|----0-----0-----|0-----0-------2--|
   pm=   ===   ===    =   ~~~~   ===      =     =      =     =
                                                             1/2
|-------------------------|-----------------|----------------------------|
|-------------------------|-----------------|----------------------------|
|-----------11----9-------|---------9-9^11--|-9--------------------------|
|------8/11---------11----|-8/11-12---------|---12--12^14^12^11b---(11)--|
|--(9)-----------------9--|-----------------|----------------------------|
|-------------------------|-----------------|----------------------------|
|
|
|
|-------------------------|-----------------|----------------------------|
|-------------------------|-----------------|----------------------------|
|-------------------------|-----------------|----------------------------|
|-------------------------|-----------------|----------------------------|
|--4--------------------4-|-4---4---5---2---|-2-----------------------5--|
|--2--2--2--2--2--2--2--2-|-2---2---3---0---|-0---0---0---0---0---0---3--|
      pm==============                            pm===============
[ Tab from: http://www.guitartabs.cc/tabs/m/megadeth/the_killing_road_tab_ver_3.html ]
|---------------------------|-------------------------------------------|
|---------------------------|-------------------------------------------|
|---------------------------|-------------------------------------------|
|--(11)---12^11^9--9---8^9--|-8--(8)\2--(2)/--11-11-11-11----11--(11)\--|
|---------------------------|-------------------------------------------|
|---------------------------|-------------------------------------------|
|    ~~~~~         ~~~        ~~~                       ~~~~  ~~~~~
|
|
|-------------------------|-
|-------------------------|-
|-------------------------|-
|-------------------------|-
|--(5)--------5---------4-|-
|--(3)--0--0--3---0--0--2-|-
        pm==      ====
                       1/2
|------------------------------------------------------------------------|
|---------------------------------14---------------------------------14--|
|------------------14--15b--(15)-----16-15-16--16^18^16--15-16----16-----|
|--/16----14-16-17---------------------------------------------16--------|
|------------------------------------------------------------------------|
|------------------------------------------------------------------------|
    ~~~~~                                                    let ring|

|-----14--------------------------------------------------------------------|
|--15----15-14-------------------14-----------------------------------------|
|--------------16----16-------11-----11-------11-------11/15-------15-------|
|-----------------16-------11-----------11-------11----------16-------16----|
|------------------------------------------13-------13----------16-------16-|
|---------------------------------------------------------------------------|
                      ~~~~

|-----------------------------------------------------------------------|
|-----------------------------------------------------------------------|
|-----18-15----18-15----18/--21^18-----21-18----21-18--19^21^19--18-----|
|--16-------16-------16-------------20-------20---------------------21--|
|-----------------------------------------------------------------------|
|-----------------------------------------------------------------------|


|---------------------------------------------------------------------------|
|---------------------------------------------------------------------------|
|--18--19^21^19--18----18--19^21^19--18------------19^18--------18\16-------|
|-------------------20-------------------21^17^21---------16-21-------14-17-|
|---------------------------------------------------------------------------|
|---------------------------------------------------------------------------|


|-------------------------------------------------------------------------|
|-----14-------------------x--20^19^17--19----20-19-17-19-18-17-----------|
|--16----16-----------------------------------------------------20-19-18--|
|-----------14-17-14-16---------------------------------------------------|
|-------------------------------------------------------------------------|
|-------------------------------------------------------------------------|
                     ~~~~~               ~~~~
                                 F                 F           F
|-------------------------------17b--17-14---------------------------------|
|------------------------------------------17-14--17b--17-14---------------|
|--17^18^19^18^17--18-17-16-14-------------------------------16b-(16)--14--|
|--------------------------------------------------------------------------|
|--------------------------------------------------------------------------|
|--------------------------------------------------------------------------|
   

|-------------------------18^14----18^14----18/-21^17----21^17----21\--|
|----------------4/14-14--------14-------14-----------17-------17------|
|--16----(16)\4--------------------------------------------------------|
|----------------------------------------------------------------------|
|----------------------------------------------------------------------|
|----------------------------------------------------------------------|
   ~~~~~

|--\15^12----15^12----15/-18^14----18^14----18/19--19^15----19^15----19/--|
|---------14-------14-----------14-------14--------------17-------17------|
|-------------------------------------------------------------------------|
|-------------------------------------------------------------------------|
|-------------------------------------------------------------------------|
|-------------------------------------------------------------------------|


|--22^19----22^19----22^19--24^19----19/15--19^15----19^15----15\12--15^12--|
|--------20-------20--------------20--------------17-------17---------------|
|---------------------------------------------------------------------------|
|---------------------------------------------------------------------------|
|---------------------------------------------------------------------------|
|---------------------------------------------------------------------------|

        F            F     F     F     F     F   F    F  F   F   F   F
|-------------------14b---15b---17b---19b---19b--22--22--22--22--22--22--|
|--12--17b---(17)---17b---18b---20b---22b---22b--------------------------|
|------------------------------------------------------------------------|
|------------------------------------------------------------------------|
|------------------------------------------------------------------------|
|------------------------------------------------------------------------| 
               ~~~~
                                                                 F
|--22------20-22-19-20----19-----------------------------------------------|
|----------------------22----20-22-19-20----19---------19-20-22--22----22--|
|----------------------------------------21----21--------------------------|
|--------------------------------------------------------------------------|
|--------------------------------------------------------------------------|
|--------------------------------------------------------------------------|
   ~~~~~~~                                      ~~~~~~~

|-------------12^11^10----10---------------------------|
|--20------------------12-----12^11^10----10^11^10-----|
|-----22-------------------------------12----------12--|
|------------------------------------------------------|
|------------------------------------------------------|
|------------------------------------------------------|
      ~~~~~~~

~~~=vibrato
pm=palm mute
1/2=1/2 bend
b=bend
F=full bend
^=pull off or hammer on
\ or /=slide
x***=pick slide
p.s.=pick slide

Dave Mustaine   lead/rhythm guitar/lead vocals 
Marty Friedman  lead rhythm/guitar/backing vocals
Nick Menza      drums/backing vocals
David Ellefson  bass guitars/backing vocals
Comments