Megadeth - The Killing Road Chords & Tabs

 

The Killing Road Chords & Tabs

Megadeth Chords & Tabs

Version: 2 Type: Tab 0 ratings
1 star 2 stars 3 stars 4 stars 5 stars
comments

The Killing Road Tab


The Killing Road (Dave Mustaine)
As Performed by Megadeth on the album "Youthanasia"

Guitars tuned half step down (E=E flat, B= Bflat etc.)

Intro

E :| ----------------|----------------- ||| -----------------|
B :| ----------------|----------------- ||| -----------------|
G :|*----------------|-----------------*|||*-----------------|
D :|*----------------|-----------------*|||*-----------------|
A :| ----7-----8-----|7-----8---5~----- ||| ----7------8-----|
E :| 0-0---0-0---0-0-|--0-0---0-------- ||| 0-0---0-0----0-0-|

E :| ----------------|----------------- ||| -----------------|
B :| ----------------|----------------- ||| -----------------|
G :|*----------------|-----------------*|||*-----------------|
D :|*----------------|-----------------*|||*----9-----10-----|
A :| ----------------|----------------- ||| -----------------|
E :| ----------------|----------------- ||| 0-0---0-0----0-0-|

=============================================================================

E :------------------ ||
B :------------------ ||
G :------------------*||
D :------------------*||
A :7------8---5~----- ||
E :--0-0----0-------- ||

E :------------------ ||
B :------------------ ||
G :------------------*||
D :9-----10---7~-----*||
A :------------------ ||
E :--0-0----0-------- ||

=================================================================================
Both guitars:

    Rh. Fig 1.
E :| ----------------|------------------|------------------|
B :| ----------------|------------------|------------------|
G :|*----------------|------------------|------------------|
D :|*----------------|-----------5------|----3-----3~-/----|
A :| ----7-----8-----|7---5-------------|------------------|
E :| 0-0---0-0---0-0-|--8---7~-----3-2--|1-1---1-1---------|

         end Rh. Fig1.
E :---------------- ||
B :---------------- ||
G :------5-------4-*||
D :----5-------4---*||
A :--7-------6----- ||
E :8-------7------- ||


Verse: w/Rh fig 1

Chorus:

E :----------------|----------------|----------------|----------------|
B :----------------|----------------|----------------|----------------|
G :----------------|----------------|----------------|----------------|
D :----9-----------|----------------|----9-----------|----------------|
A :----7-----9-----|8-----5-----3-2-|----7-----9-----|8-----5-----3-2-|
E :0---------7-----|6-----3-----1-0-|--0-------7-----|6-----3-----1-0-|

Interlude:

E :----------------|-----------------|------------------|
B :----------------|-----------------|------------------|
G :----------------|-----------------|------------------|
D :----------------|-----------5-----|----3-----3~--/---|
A :----7-----8-----|7---7------------|------------------|
E :--0---0-0---0-0-|--8---7~-----3-2-|1-1---1-1---------|

E :----------------|----------------|-----------------|----------------|
B :----------------|----------------|-----------------|----------------|
G :------5-------4-|----------------|-----------------|----------------|
D :----5-------4---|----------------|-----------5-----|----------------|
A :--7-------6-----|----7-----8-----|7---7------------|7-8---5-7---3-5-|
E :8-------7-------|0-0---0-0---0-0-|--8---7~-----3-2-|----0-----0-----|

E :----------------|
B :----------------|
G :----------------|
D :----------------|
A :--2-3---2-2-0-4-|
E :0-----0-------2-|


Solo:

E :----------------------|----------------------|
B :----------------------|----------------------|
G :----------11---9------|-------------9---9-h11|
D :----8/-11--------11---|--8/-11-12------------|
A :(9)-----------------9-|----------------------|
E :----------------------|----------------------|

  Rh Fig. 2
E :----------------------|----------------------|
B :----------------------|----------------------|
G :----------------------|----------------------|
D :----------------------|----------------------|
A :----4---------------4-|--4------4---5---2----|
E :----2---2--2-2-2--2-2-|--2------2---3---0----|

=====================================================================

               ____3____
E :------------|---|---|----------|------------------------|
B :------------|---|---|----------|------------------------|
G :--9---------|---|---|----------|------------------------|
D :------12---12-h14-p12-p11b-r11-|--12-p11-p9-9~-----8h-9-|
A :-------------------------------|------------------------|
E :-------------------------------|------------------------|

                                              End Rh. Fig 2
E :-------------------------------|------------------------|
B :-------------------------------|------------------------|
G :-------------------------------|------------------------|
D :-------------------------------|------------------------|
A :--2--------------------------5-|------------3---------4-|
E :--0-0--0-0------0-------0----3-|---0------0-5----0-0--2-|

====================================================================


w/Rh. fig 2   ___3___
E :-----------|--|--|----------|----------------------------|
B :-----------|--|--|----------|----------------------------|
G :-----------|--|--|----------|----------------14-15b------|
D :8----\-2-/11-11-11-11~-11-~-|16~----14-16-17-------------|
A :----------------------------|----------------------------|
E :----------------------------|----------------------------|


             ___3___  ____3___
E :----------|--|--|--|---|---|------------|
B :------14--|--|--|--|---|---|----------16|
G :-(15)----16-15-16-16-h18-p16-16----14---|
D :--------------------------------16------|
A :----------------------------------------|
E :----------------------------------------|

E :---14-----------------------------|
B :15----15-14---------------------14|
G :------------16----16-~-------11---|
D :---------------16---------11------|
A :----------------------------------|
E :----------------------------------|
[ Tab from: http://www.guitartabs.cc/tabs/m/megadeth/the_killing_road_tab_ver_2.html ]
E :-------------------------------------------|
B :-------------------------------------------|
G :11-------11-------11/-15-------15----------|
D :---11-------11-----------16-------16----16-|
A :------13-------13-----------16-------16----|
E :-------------------------------------------|

E :----------------------------------------------|
B :----------------------------------------------|
G :18-15----18-15----18/-21-p18----21-18----21-18|
D :------16-------16------------20-------20------|
A :----------------------------------------------|
E :----------------------------------------------|

E :-----------------------------------------------------|
B :-----------------------------------------------------|
G :19-h21-p19-18----18-19-h21-p19-18----18-19-h21-p19-18|
D :--------------21------------------20-----------------|
A :-----------------------------------------------------|
E :-----------------------------------------------------|

E :------------------------------------------------------|
B :----------------------------------------14------------|
G :-----------19-p18-------18-\16-------16----16---------|
D :21-p17-h21--------16-20--------14-17----------14-17-14|
A :------------------------------------------------------|
E :------------------------------------------------------|
            ____3____
E :---------|---|---|-------------|
B :------x-20-p19-p17-19~----20-19|
G :-------------------------------|
D :16~----------------------------|
A :-------------------------------|
E :-------------------------------|

                ___3___          ____3____
E :-------------|--|--|----------|---|---|------------|
B :17-19-18-17--|--|--|----------|---|---|------------|
G :------------20-19-18-17-h18-h19-p18-p17-18-17-16-14|
D :---------------------------------------------------|
A :---------------------------------------------------|
E :---------------------------------------------------|
           ___3___
           |  |  |
E :17b-17-14--|--|--------------------|----------------------|
B :----------17-14-17b-17-14----------|-------------4/-14-14-|
G :--------------------------16-b16-14|16~-------\4----------|
D :-----------------------------------|----------------------|
A :-----------------------------------|----------------------|
E :-----------------------------------|----------------------|

E :18-p14----18-p14----18/-21-p17----21-p17----21\-|
B :-------14--------14------------17--------17-----|
G :------------------------------------------------|
D :------------------------------------------------|
A :------------------------------------------------|
E :------------------------------------------------|

E :15-p12----15-p12----15/-18-p14----18-p14----18-/19|
B :-------14--------14------------14--------14-------|
G :--------------------------------------------------|
D :--------------------------------------------------|
A :--------------------------------------------------|
E :--------------------------------------------------|

E :19-p15----19-p15----19/-22-p19----22-p19----22-p19|
B :-------17--------17------------20--------20-------|
G :--------------------------------------------------|
D :--------------------------------------------------|
A :--------------------------------------------------|
E :--------------------------------------------------|

=============================================================

E :-24-p19----19-\15-19-p15----19-p15----15-\12-15-p12---|
B :--------20---------------17--------17---------------12|
G :------------------------------------------------------|
D :------------------------------------------------------|
A :------------------------------------------------------|
E :------------------------------------------------------|

E :------------------------------------------------------|
B :------------------------------------------------------|
G :------------------------------------------------------|
D :------------------------------------------------------|
A :(-5)-------------------3--------------------------4---|
E :(-3)-----0------0------5------------0------0------2---|

=============================================================================

E :------------------14----|--18----17----19----19--|
B :17b-----(17)-~----17b---|--15b---20b---22b---22b-|
G :------------------------|------------------------|
D :------------------------|------------------------|
A :------------------------|------------------------|
E :------------------------|------------------------|

E :------------------------|------------------------|
B :------------------------|------------------------|
G :------------------------|------------------------|
D :------------------------|------------------------|
A :----------------------4-|---4-----4-----5-----2--|
E :----------------------2-|---2-----2-----3-----0--|

=========================================================

w/Rh. Fig 1
E :----22b-------22b---|22b---22b-(22)-22b---22b---|22-~--------------|
B :--------------------|---------------------------|------------------|
G :--------------------|---------------------------|------------------|
D :--------------------|---------------------------|------------------|
A :--------------------|---------------------------|------------------|
E :--------------------|---------------------------|------------------|

   ____3___  ___3___  ___3___  ___3___
   |   |  |  |  |  |  |  |  |  |  |  |
E :20-22-19-20--|-19--|--|--|--|--|--|-|------------------|
B :------------22----20-22-19-20--|-19-|------------------|
G :------------------------------21----|21-~--------------|
D :------------------------------------|------------------|
A :------------------------------------|------------------|
E :------------------------------------|------------------|

    _____3_____        __3____
E :-|----|----|----------|----|-|------------------|
B :19---20---22---22b----22--20-|------------------|
G :-----------------------------|22-~--------------|
D :-----------------------------|------------------|
A :-----------------------------|------------------|
E :-----------------------------|------------------|

E :12-p11-p10----10------------------------------|
B :-----------12------12-p11-p10----10-h11-p10---|
G :------------------------------12------------12|
D :----------------------------------------------|
A :----------------------------------------------|
E :----------------------------------------------|

Chorus.
Comments