Megadeth - The Killing Road Chords & Tabs

 

The Killing Road Chords & Tabs

Megadeth Chords & Tabs

Version: 1 Type: Tab 0 ratings
1 star 2 stars 3 stars 4 stars 5 stars
comments

The Killing Road Tab

#----------------------------------PLEASE NOTE---------------------------------#
#This file is the author's own work and represents their interpretation of the #
#song. You may only use this file for private study, scholarship, or research. #
#------------------------------------------------------------------------------#

The  Killing Road
MEGADETH
standard tuning down 1/2 step

                                                           ( 2gtrs arrg. for 1)
|-------------------------------------------|-----------------------------------------|
|-------------------------------------------|-----------------------------------------|
|*---------------------------------------*|*--------------------------------------*|
|*---------------------------------------*|*------9-----10------9----10---7~--*|
|--------7------8------7-------8----5~--|--------7------8------7------8---5~----|
|---0-0---0-0----0-0----0-0----0-------|---0-0---0-0----0-0---0-0----0-------|
    pm    ......     ......    ......     ...             ......   ......     ......    .....     ...
                                                                                      _______________ ________________
Riffa                                                                              | 1          (end Riffa)  | 2
|------------------------------------------------------------------------------------------|----------------------|
|------------------------------------------------------------------------------------------|----------------------|
|*-----------------------------------------------------------------------5-----------4--*|---------5--------4--|
|*----------------------------------5----------3-------3---3/--------5-----------4----*|----2-5------1-4----|
|--------7-----8------7---5----------------------------------------7-----------6--------|--3--------2---------|
|---0-0---0-0---0-0---8----7~-----3-2-1-1----1-1---1------8-----------7-----------|----------------------|
    pm.   .....     .....    ..                ............      .....    ..       ...........      ............        ..........   ...........

Verse 1 w/Riffa x4


chorus

Riffb
[ Tab from: http://www.guitartabs.cc/tabs/m/megadeth/the_killing_road_tab.html ]
         lost    my    mind                            lost all my money                        i lost my mind to the killing road     
|----------------------------------------|---------------------------------------|-------------------------------|--------------------------|
|----------------------------------------|---------------------------------------|-------------------------------|--------------------------|
|*---------------------------------------|---------------------------------------|-------------------------------|-------------------------*|
|*------9--------------------------------|-----9---------------------------------|-------------%---------------|------------%----------*|
|-------7------9------8------5------3--2-|-----7-------9------8------5------3--2-|-------------------------------|--------------------------|
|---0----------7------6------3------1--0-|--0----------7------6------3------1--0-|-------------------------------|--------------------------|
                                                             pm

Verse 2 w/ Riffa x4


Repeat chorus

(bottom 4 strings shown only)
                                                __________________________________  ____________
                                                | 1                                 | 2
|------------------------------------------------------------------------5------4---|-------------------------------------------|
|*-----------------------------------5----------3-----3-----3/--------5-------4----*|--5----------------------------------------|
|*---------7------8------7----5------------------------------------7--------6------*|---------7-8---5-7----3-5---2-3---2-2-0-4--|
|--(0)--0----0-0----0-0----8----7~-----3-2-1-1----1-1----1-------8--------7---------|----3-2------0------0------0------0-----2--|
   pm....    ...    ...    .           .......    ...    .       .......  ......         ...      .      .      .             
   (play backeted note 2nd time only)

under solo
( # = eigth rest)                                     (play 4 times)
|------------------------------------------------------------------|------------------------------|
|*----------------------------------------------------------------*|------------------------------|
|*--4-----------4-#-4-#-4-#-5-#-2-#-2-----------5-------5-------4-*|-(4)--------4-#-4-#-4-#-5-#-2-|
|---2-2-2-2-2-2-2---2---2---3---0---0-0-0-0-0-0-3---0-0-3---0-0-2--|-(2)--------2---2---2---3---0-|
      pm........                      ..........    ...     ...                 
Repeat chorus x2

End
Comments