Megadeth - The Disintegrators Chords & Tabs

 

The Disintegrators Chords & Tabs

Megadeth Chords & Tabs

Version: 2 Type: Tab 0 ratings
1 star 2 stars 3 stars 4 stars 5 stars
comments

The Disintegrators Tab

Artist: Megadeth 
Album: Cryptic Writings
Song: The Disintegrators


Standard Tuning

Intro
---------------------------------
---------------------------------
---------------------------------
---------------------------------
-333--333--35--333-333--3--------
-------------------------3b4-----

Verse
---------------------------------------------------------------------------------
-----------3p0-----------------3p0-----------------3p0-----------------3p0-------
-2------2-----2p0----5------5-----2p0----7------7-----2p0----2------2-----2p0----
-2------2--------2p0-5------5--------2p0-7------7--------2p0-2------2--------2p0-
-0-0000-0------------3-3333-3------------5-5555-5------------0-0000-0------------
---------------------------------------------------------------------------------

Pre-Chorus
-------------------------------------------------
-------------------------------------------------
--------2---2-------------------2---2------------
-4--4-4-2---2------------4--4-4-2---2------------
-4--4-4-0---0-0000000000-4--4-4-0---0-0000000000-
-2-22-2---3--------------2-22-2---3--------------
[ Tab from: http://www.guitartabs.cc/tabs/m/megadeth/the_disintegrators_tab_ver_2.html ]
Chorus
---------------------------------------------------------------------------------
---------------------------------------------------------------------------------
---------7-7-7-----------------------------------7-7-7---------------------------
-2-2-2---7-7-7---5-5---5---5-7-7---7-8-9-2-2-2---7-7-7---5-5---5---5-7-7---7-8-9-
-2-2-2---5-5-5---5-5---5---5-7-7---7-8-9-2-2-2---5-5-5---5-5---5---5-7-7---7-8-9-
-0-0-0-----------3-3-3-3-0-3-5-5-5-5-6-7-0-0-0-----------3-3-3-3-0-3-5-5-5-5-6-7-

-------------------------------------------------------------------------
-------------------------------------------------------------------------
-9-----------------------------------------------------------------------
-9-------9-1112-12-------------9-12-11-11-------9-11-12-10-------9-11-12-
-7-7777777-9-10-12-------------7-10--9-11-------7--9-10-10-------7--9-10-
----------------10-101010101010---------9-999999---------8-888888--------

Interlude
------------------------------------------------------------------
------------------------------------------------------------------
-2-2-2------------2-2-2------------2-2-2---5-7-8-2-2-2------------
-2-2-2------------2-2-2------------2-2-2---5-7-8-2-2-2------------
-0-0-0---00000000-0-0-0---00000000-0-0-0---3-5-6-0-0-0---00000000-
------------------------------------------------------------------
Comments