Megadeth - The Disintegrators Chords & Tabs

 

The Disintegrators Chords & Tabs

Megadeth Chords & Tabs

Version: 1 Type: Tab 0 ratings
1 star 2 stars 3 stars 4 stars 5 stars
comments

The Disintegrators Tab

By:Jimmy hill 
Jimmy_hill1001@hotmail.com
corrections are welcome but needed coz iam ace

intro (work out the timing yourself) standard tuning E
e|---------------------------------------------------------------------------|
B|---------------------------------------------------------------------------|
G|---------7-5---------------------------------------------------------------|
D|-7-7-7-7---7-5-------------------------------------------------------------|
A|-0-0-0-0-----7-5-----------------------------------------------------------|
E|---------------------------------------------------------------------------|
Repeat not 
[ Tab from: http://www.guitartabs.cc/tabs/m/megadeth/the_disintegrators_tab.html ]
verse1
e|---------------------------------------------------------------------------|
B|---------------------------------------------------------------------------|
G|---------------------------------------------------------------------------|
D|---------------------------------------------------------------------------|
A|---4----5----4----5---4/7/5\7----------------------------------------------|
E|-0/2--0/3--0/2--0/3-0/2/5/3\5--5-5-5-5-5-5---------------------------------|
P.M all this 

verse1
e|---------------------------------------------------------------------------|
B|---------------------------------------------------------------------------|
G|---------------------------------------------------------------------------|
D|---2-2-2-2-2-2-2-4-4---4-4-5-4-2-2-2--4-4-5-2-4-5-2------------------------|
A|---2-2-2-2-2-3-3-5-5---5-5-5-5-4-4-4--4-4-4-3-3-3-3------------------------|
E|---------------------------------------------------------------------------|
This is spot on no doubt about it
Comments