Megadeth - Symphony Of Destruction Chords & Tabs

 

Symphony Of Destruction Chords & Tabs

Megadeth Chords & Tabs

Version: 7 Type: Tab 0 ratings
1 star 2 stars 3 stars 4 stars 5 stars
comments

Symphony Of Destruction Tab

#-----------------------------PLEASE NOTE-------------------------------------#
#This OLGA file is the author's own work and represents their interpretation  #
#of the song. You may only use this file for private study, scholarship, or   #
#research. Remember to view this file in Courier, or some other monospaced    #
#font. See http://www.olga.net/faq/ for more information.                     #
#-----------------------------------------------------------------------------#

Date: Mon, 21 Aug 2000 15:50:42 -0400
From: XSocietyDwellerX@aol.com
Subject: m/megadeth/symphony.tab

Megadeth
Symphony Of Destruction
>From Countdown To Extinction

Intro Riff/Verse:
----------------


-------------------------------------------------------------------
-------------------------------------------------------------------
-------------------------------------------------------------------
-----------3---2---------3---2--------------------3---2------------
-----------1---0---------1---0--------------------1---0------------
1--3--1----1---0---------1---0---------1--3--1----1---0------------

....... P.M.                           ....... P.M.


Pre Chorus:
----------


-------------------------------------------------------------------
--------------------------------------------------0h1--0-----------
--------2-----1-----0----0h2--0--2-----1-----0----0h2--0-----------
--------2-----1-----0------------2-----1-----0---------------------
-------------------------------------------------------------------
0--0-------0-----0------------------0-----0------------------------
.... P.M.  .     .                  .     .               



----------------------------------------------0h1--0---------------
-------------------0h1--0------------------------------------------
--2-----1-----0----0h2--0----2-----1-----0----0h2--0---------------
--2-----1-----0--------------2-----1-----0-------------------------
-------------------------------------------------------------------
-----0-----0--------------------0-----0----------------------------
     .     .                    .     .


-------------------0h1--0---------------------0h1--0---------------
-------------------------------------------------------------------
--2-----1-----0----0h2--0----2-----1-----0----0h2--0---------------
--2-----1-----0--------------2-----1-----0-------------------------
-------------------------------------------------------------------
-----0-----0--------------------0-----0-----------------0---0---0--
     .     .                    .     .                 .   .   .


Chorus:
------

 "Arollllll..."                           "Just     ...
-------------------------------------------------------------------
-------------------------------------------------------------------
---(vibrato)-------------------------------------------------------
------------------------------------2------9--------8--------7-----
-5~~~~~~~~~~~~~---------------------0------7--------7--------7-----
-----------------7--6--5--3--2--1---0---0--------------------------
                 .  .  .  .  .  .  


Pied       ....
-------------------------------------------------------------------
-------------------------------------------------------------------
-------------------------------------------------------------------
6~~~~~-----------------------------5---------4~~~~~~------7--------
-----------7-----(slide)-----------3----------------------5--------
---------------7////////0---0--------------------------------------


The        ...
-------------------------------------------------------------------
-------------------------------------------------------------------
-------------------------------------------------------------------
-5----4-----------------------------9--------8--------7-----6~~~---
-----------5------------------------7--------7--------7------------
-----------------7~~~~~~~-----0------------------------------------



nette        ....
-------------------------------------------------------------------
-------------------------------------------------------------------
-------------------------------------------------------------------
-----------------------5--------4~~~~------------------------------
7----------------------3-----------------7--7--7--7--7--7--7-------
-----7\\\\\\\0---------------------------5--5--5--5--5--5--5-------
                                         .  .  .  .  .  .  .


Destruction!"    (Back To Verse)
-------------------------------------------------------------------
-------------------------------------------------------------------
-------------------------------------------------------------------
3----2-------------------------------------------------------------
1----0-------------------------------------------------------------
1----0-------------------------------------------------------------

Solo
[ Tab from: http://www.guitartabs.cc/tabs/m/megadeth/symphony_of_destruction_tab_ver_7.html ]
...Of Destruction!"
-------------------------------------------------------------------
-------------------------------------------------------------------
---------------------1//////9~~~~~~~~~~~-----7////9~~~~~~~~--------
-------------------------------------------------------------------
-------------------------------------------------------------------
-------------------------------------------------------------------


[These Note All Flow Together]            [more flowing notes]
-------------------------------------------------------------------
------------------------------------------5------------------------
--9\\7--5---6SlowFullBend~~~~~~~-------0--7fullbend--2slowfullbend~
-------------------------------------------------------------------
-------------------------------------------------------------------
-------------------------------------------------------------------
      =20

                     [continue to flow...]
-------------------------------------------------------------------
-------------------------------------------------------------------
~~~~---0--2--0---2bend/\/\/\/\-------2bendup&downfull--0-------0---
-----------------------------------------------------------2-------
-----------------(heavy--------------------------------------------
------------------------vibrato)-----------------------------------



[odd flowing stops here, everything past here is QUICK]
----------------------------------------------8--12------8--12-----
------------------------------------------10---------10------------
-------------------------------------------------------------------
--2-----2///9~~~~-------9--11------9--11---------------------------
-------------------------------10----------------------------------
-------------------------------------------------------------------



12/14--12------12--14--17--14------17--14--17/20--17h20p17\14------
-----------13------------------17------------------------------17--
-------------------------------------------------------------------
-------------------------------------------------------------------
-------------------------------------------------------------------
-------------------------------------------------------------------



-------------------------------------------------------------------
14~~~~~---12p10------10--12p10------10--15p10------15p10------14p10
-----------------12-------------12-------------12---------12-------
-------------------------------------------------------------------
-------------------------------------------------------------------
-------------------------------------------------------------------



12p10------10--12p10------12p10--15p10------15p10------14p10-------
-------12-------------12----------------12---------12--------------
-------------------------------------------------------------------
-------------------------------------------------------------------
-------------------------------------------------------------------
-------------------------------------------------------------------



15p10------10--19p15------15--22p19------19------------------------
-------12-------------17-------------20------20p15-----------------
----------------------------------------------------16------19p16--
--------------------------------------------------------17---------
-------------------------------------------------------------------
-------------------------------------------------------------------



-------------------------------------------------------------------
-----------------------------------------------------------------12
------------------------------------------14/15--12------12--14----
---17--------------------------19~~~~~~--------------14------------
-------17--19--17--16--17--19--------------------------------------
-------------------------------------------------------------------



-------------------------------------------------------------------
13p12------------------------12--13p12--13p12----------------------
-------15b17p12------12--14--------------------15b17p12------12--14
-----------------14--------------------------------------14--------
-------------------------------------------------------------------
-------------------------------------------------------------------



---12---------------------------------12----------------12---------
12-----15---------------------------------15p12--15b17------15p12--
-----------15--14p12------12full~~~--------------------------------
----------------------14-------------------------------------------
-------------------------------------------------------------------
-------------------------------------------------------------------



--------12-----------------12----------------12----------17b19//---
------------15p12--------------15p12-------------15p12---17b19//---
15b17--------------15b17--------------12b17------------------------
-------------------------------------------------------------------
-------------------------------------------------------------------
-------------------------------------------------------------------


-----
Thats it. Email me for anythin XSocietyDwellerX@aol.com
Comments