Megadeth - Symphony Of Destruction Chords & Tabs

 

Symphony Of Destruction Chords & Tabs

Megadeth Chords & Tabs

Version: 6 Type: Tab 0 ratings
1 star 2 stars 3 stars 4 stars 5 stars
comments

Symphony Of Destruction Tab

   
Megadeth-Symphony of Destruction
(Figured out by Jacob Ottosson)
Sorry.. I Found some major mistakes 
on the tab Symphony of destruction
I mailed you. I have fixed them now, 
so here you are :

----------------------------------------------
----------------------------------------------
----------------------------------------------
----------------------------------------------
---------3----2--2---------------------3-2--2-
1--3--1--1----0--0---------1--3--1----1--0--0-
You take a mortal man
[ Tab from: http://www.guitartabs.cc/tabs/m/megadeth/symphony_of_destruction_tab_ver_6.html ]
------------------------------------------
------------------------------------------
------------------------------------------
7--6--5--3--h5--p3------6--5--------------
5--4--3-------------5---4--3--------------
------------------------------------------
a'roll.........

-------------------------------------------------
-------------------------------------------------
-------------------------------------------------
------6------------9--8-----7-----5--------------
3--5--4------------7--7-----7-------7------------
1--3------------0---------0-----0-----7~~--------
just like the pied piper

-------------------------------------------------
-------------------------------------------------
-------------------------------------------------
---7--6-----5--5--h7--p5-------------------------
---5--5-----5-------------7--5-------------------
0--------0---------------------------------------
dance like the marionettes

TABBED BY JACOB OTTOSSON year 2000


Comments