Megadeth - Symphony Of Destruction Chords & Tabs

 

Symphony Of Destruction Chords & Tabs

Megadeth Chords & Tabs

Version: 2 Type: Tab 1 rating
1 star 2 stars 3 stars 4 stars 5 stars
comments

Symphony Of Destruction Tab

Megadeth    
Symphony of Destruction from Countdown to Extinction

By Ben Young
I am sure this tab is 100% correct BUT solo to come later!

The verse
e------------------------------------------------------------
b-----------------------------------------------------------
g-----------------------------------------------------------
d-----------------------------------------------------------
a-----------------3--2---2----3--2--2--------------3---2--2--
E-1----3----1-----1--0---0----1--0--0----1--3--1---1---0--0--
pm-----------                         pm----------


Pre-chorus
e---------------------------------------
b---------------------------------------
g---------------------------------------
d------7-------6-------5---5h7p5--7-----
a------7-------6-------5----------7-----
E-0-0------0------0---------------------
pm---     ---    --- 
[ Tab from: http://www.guitartabs.cc/tabs/m/megadeth/symphony_of_destruction_tab_ver_2.html ]
e--------------------------------------------------------
b--------------------------------------------------------
g--------------------------------------------------------
d-----6----5----\------------------------------------------
a-----6----5----\----------5~~-----------------------------
E---0----0----------0---0---------6--5--4--3--2--1--0------
pm---   --         ------       pm----------------

Chorus
e--------------------------------------------------------
b--------------------------------------------------------
g--------------------------------------------------------
d-------9----------8---------7--------6~~----------------
a-----------7---------7---------5---------7--------------
E--(0)----------0--------0---------0---------7\----0-----

e--------------------------------------------------------
b--------------------------------------------------------
g--------------------------------------------------------
d------5-----------4---------7~~---5---4------------------
a----------3----------3--------------------5-------------
E--(0)--------0----------0----------------------7~~------

e--------------------------------------------------------
b--------------------------------------------------------
g--------------------------------------------------------
d------7---7---7---7---7---\----------------------------
a------5---5---5---5---5---\-----------------------------
E--------------------------------------------------------
    pm--------------
Comments