Megadeth - Sweating Bullets Chords & Tabs

 

Sweating Bullets Chords & Tabs

Megadeth Chords & Tabs

Version: 1 Type: Bass Tab 0 ratings
1 star 2 stars 3 stars 4 stars 5 stars
comments

Sweating Bullets Bass Tab

                                Sweating Bullets
                    	from Countdown to Extinction
				by Megadeth
                        transcribed by Travis Higgins
			     travis@primenet.com


Drums                                 
-|--------|--------------------|----------------------|--------------------|
-|--------|--------------------|----------------------|--------------------|
-|--------|--------------------|----------------------|--------------------|
-|--------|--0-----2--3-----7--|--6---/3--2-----2--3--|--0-----2--3-----7--|
                               

                                
-----------------|--------------------|---------------------|-----------|
-----------------|--------------------|---------------------|-----------|
----/5-----------|--------------------|---------------------|-----------|
6-------7-----3--|--0-----2--3-----7--|--6---/3--2-----2h3--|--0--------|
                                        

                 1st, 2nd, and 3rd  verses  (repeat 8 times)
------------||----------------|------------------||------
------------||*---------------|-----------------*||------
------------||*---------------|-----------------*||------
0-----6--5--||----0-----------|-----------6--5---||------
                            

     Chorus                              
||----------------------|-------------------------|--
||*---------------------|-------------------------|--
||*---------------------|-------------------------|--
||----0--3--5--0--3--6--|--(6)-----5-----0--6--5--|--
                              

                                         
------------------------|-------------------------|--
------------------------|-------------------------|--
------------------------|-------------------------|--
0-----3-----5--0--3--6--|--(6)-----5-----3--0--1--|--
                                                      

                                           
------------------------|-------------------------|--
------------------------|-------------------------|--
------------------------|-------------------------|--
0-----3-----5--0--3--6--|--(6)-----5-----0--6--5--|--
                                         

                                     Sweating Bullets 
------------------------|--------||---------|---------
------------------------|-------*||---------|---------
------------------------|-------*||---7-----|--5--7---
0-----3-----6--0--1--0--|--(0)---||---------|---------
                                                   

Then goto 2nd verse and chorus again


     Interlude                                              (2 times)
||-------------------------------------|---------------------------||-
||*------------------------------------|--------------------------*||-
||*------------------------------------|--------------------------*||-
||----1--1--1--1--1--1--0-----1--1--1--|--0-----1--1--1--0--6--5---||-
                                     

                                   
---------------------------------|----------------------------|-
---------------------------------|----------------------------|-
---------------------------------|----------------------------|-
4--4--4--4--4--4--3-----4--4--4--|/6--6--6--6--6--6--6--5--1--|-
                                            

                                                       (repeat 3 times)
||------------------------------------|---------------------------||-
||*-----------------------------------|--------------------------*||-
||*-----------------------------------|--------------------------*||-
||---1--1--1--1--1--1--0-----1--1--1--|--0-----1--1--1--0--6--5---||-
                                                
[ Tab from: http://www.guitartabs.cc/tabs/m/megadeth/sweating_bullets_btab.html ]
                                                
---------------------------------|-------------------------------
---------------------------------|-------------------------------
---------------------------------|-------------------------------
4--4--4--4--4--4--3-----4--4--4--|/6--6--6--6--6--6--6--5--1-----
                                  

     Guitar Solo                                         (repeat 3 times)
||-------------------------------------|---------------------------||-
||*------------------------------------|--------------------------*||-
||*------------------------------------|--------------------------*||-
||----1--1--1--1--1--1--0-----1--1--1--|--0-----1--1--1--0--6--5---||-
                           

                         
---------------------------------|----------------------------|-
---------------------------------|----------------------------|-
---------------------------------|----------------------------|-
4--4--4--4--4--4--3-----4--4--4--|/6--6--6--6--6--6--6--5--1--|-
                  
         
Repeat the entire guitar solo part twice


                     (4 times)
||--------------|---------||--------------|--
||*-------------|--------*||--------------|--
||*--8----------|--------*||--------------|--
||------8--7\3--|--0------||--1--------2--|--
                      

                                         
||---------------------------------------------------|-
||*--------------------------------------------------|-
||*--5-----------4-----------3-----------2-----------|-
||------0--2--3-----0--2--3-----0--2--3-----0--2--3--|-
                   

                                          (4 times)
-------------------------------------------------||-
------------------------------------------------*||-
1-----------0-----------------------------------*||-
---0--2--3-----0--2--3--4--3--2--1--0--1--2--3---||-
                      

Then goto 3rd verse and chorus


     After final chours (outro)   (triplets)
||----------------------------------------|-
||*---------------------------------------|-
||*---------------------------------------|-
||----0--0--0--3--3--3--5--5--5--3--3--3--|-
                         

        
------------------------------------|--------------------------------------|-
------------------------------------|--------------------------------------|-
------------------------------------|--------------------------------------|-
6--6--6--5--5--5--0--0--6--5--5--5--|--0--0--0--3--3--3--5--5--5--3--3--3--|-
                   

                                 (3 times)
-------------------------------------||--
------------------------------------*||--
------------------------------------*||--
7--7--7--5--5--5--3--3--0--1--1--1---||--
                       

                  
------------------------------------|--------------------------------------|-
------------------------------------|--------------------------------------|-
------------------------------------|--------------------------------------|-
7--7--7--5--5--0--0--0--6--5--5--5--|--0--0--0--3--3--3--5--5--5--3--3--3--|-
                     

                        
------------------------------------|-----------------|-------------|-
------------------------------------|-----------------|-------------|-
------------------------------------|-----------------|----------7--|-
6--6--6--5--5--5--0--0--6--5--5--5--|--6--5--3--1--0--|--(0)--------|-
                       

                         
---------|----------------|-----------||
---------|----------------|-----------||
5--7-----|--(7)-----------|-----------||
---------|----------6--5--|--0--------||
                                



================================================================================
==           Created with a shareware version of the BUCKET 'O TAB            ==
==                  tablature creation software for Windows                   ==
==                           For more information:                            ==
==                          email: gse@ocsystems.com                          ==
==      US Mail: The Bucket, 3176-B5 Summit Square Dr., Oakton, VA 22124      ==
================================================================================

Comments