Megadeth - Skin O My Teeth Chords & Tabs

 

Skin O My Teeth Chords & Tabs

Megadeth Chords & Tabs

Version: 4 Type: Tab 0 ratings
1 star 2 stars 3 stars 4 stars 5 stars
comments

Skin O My Teeth Tab

Explanations:  P - pull off
               H - hammer on
               B - bend
               R - release bend
               / - slide up
               \ - slide down
               ^ - upstroke (the pick moves towards the sky. "Pull")
               v - downstroke (the pick moves towards the ground. "Push")
             (5) - let ring the indicated note, but don't pick

A piece from Skin o' my Teeth
(Megadeth, Countdown to Extinction)

Note: Play triplets!

    ^       ^   v   v   ^    v   ^   ^   v   ^   v
E|-17-P12----------12--15-|-14--12------12--15--12-|
B|---------14--15---------|---------15-------------|
G|------------------------|------------------------|
D|------------------------|------------------------|
A|------------------------|------------------------|
E|------------------------|------------------------|

    ^       ^   v   ^   v    ^   v   ^   v   ^   v
E|-19-P12------12---------|------------------------|
B|---------15------15--13-|-----13--15--16--15--13-|
G|------------------------|-14---------------------|
D|------------------------|------------------------|
A|------------------------|------------------------|
E|------------------------|------------------------|
[ Tab from: http://www.guitartabs.cc/tabs/m/megadeth/skin_o_my_teeth_tab_ver_4.html ]
    ^   v   ^   v        ^  v    ^   v   ^
E|------------------------|------------------------|
B|-----13--15--12H13P12---|-12---------------------|
G|-14-------------------14|-----14--12--11H12P11P9-|
D|------------------------|------------------------|
A|------------------------|------------------------|
E|------------------------|------------------------|

   v
E|------------------------|------------------------|
B|------------------------|------------------------|
G|-9\5--------------------|------------------------|
D|------------------------|------------------------|
A|------------------------|------------------------|
E|------------------------|------------------------|

Some nanosecundums later...

E|-------------------------|----------------------------|
B|-15H17P15P12-15H17-14B15-|R14-12-14\12-10H12H14-12-10-|
G|-------------------------|----------------------------|
D|-------------------------|----------------------------|
A|-------------------------|----------------------------|
E|-------------------------|----------------------------|


E|---------------------------|-------------------------|
B|-10H12H14-12-10-12\10-9-10-|-------------------------|
G|---------------------------|-11----------------------|
D|---------------------------|-------------------------|
A|---------------------------|-------------------------|
E|---------------------------|-------------------------|
Comments