Megadeth - Silent Scorn Chords & Tabs

 

Silent Scorn Chords & Tabs

Megadeth Chords & Tabs

Version: 1 Type: Tab 0 ratings
1 star 2 stars 3 stars 4 stars 5 stars
comments

Silent Scorn Tab

Silent Scorn - Megadeth (Dave Mustaine)

From the 2001 album 'The World Needs A Hero'

Tabbed out by Adam Miller, written by Nicholas Brodie.

Not all the strings are present on all sections (I have cut out unnesserary strings). Listen to 
the CD for the timing.

Electric Guitar figure (includes keyboard/synthesizer ending):

Intro (on b, bend up and hold strongly; on the intro only vibrate the notes indicated very well,
adding warmth and extending the life of the note to make it sound like it does on the disc):
E|-------------------------------------------------------------875-75------
B|----5~----7b5~---------------7b5~-----------7b5-----------------8--8-5~--
G|--4~--------------------4-5~------------5-6----67~------------------7----

E-----------------------|
B--------8~---7~---5313-|
G------45---45---45-----|

Heavy section (play notes with force):
D|-------2454212----5-4-2-4-5-------2454212-5-4-2-4-5------|
A|--212~--------2~-----------3-323~--------3----------4-434|
E|-0-------------------------------------------------------|

(mute first 0 immediately after playing)
[ Tab from: http://www.guitartabs.cc/tabs/m/megadeth/silent_scorn_tab.html ]
Quick section (immediately following heavy section):
E|-------------------------------|
B|-------53----------------------|
G|----245--54~--3~---------------|
D|-245--------------4/5-5--------|
A|---------------------7-7~--4~3~|
E|-------------------------------|

(to be played quickly, w/ timing of Dave, or just play smoothly, still sounds good)

Keyboard/Synthesizer Section (tabbed out for guitar, following 'quick section'):
E|----------------------------------------------------------------------------
B|-------------12-10--1212131210---------------12-10-------0/1/2/3/4/5~-7-8~--
G|----9~-11-12--------------------12-9~--11-12-------5-4~-2-------------------
D|-2/9------------------------------------------------------------------------
A|----------------------------------------------------------------------------
E|----------------------------------------------------------------------------

E|--------------------12--14-15--19-17--19-20~-|
B|-12-10~-1212131210---------------------------|
G|------------------12-------------------------|

That's it. Don't raise the last bend, just vibrate it and add warmth to make it sound well.

It's a pity that there is no more Megadeth. This world will miss them.

"I know if I wake her, I'll wake up DEAD"











Comments