Megadeth - She Wolf Chords & Tabs

 

She Wolf Chords & Tabs

Megadeth Chords & Tabs

Version: 2 Type: Tab 0 ratings
1 star 2 stars 3 stars 4 stars 5 stars
comments

She Wolf Tab

MEGADETH – SHE WOLF (GUITAR TAB)
TRACK TEN ON CRYPTIC WRITINGS

Intro Riff:

|---------------------------------|
|---------------------------------|
|---------------------------------|
|-PALM MUTE--------------------->-|
|---------------------------------|
|-0-000-0-000-0-000-0-000-000-000-|

“Wicked temptress knows how to please”
|-----------------------------------------------|
|-----------------------------------------------|
|-----2-------2---------------------------------|
|-4---4---4---4---------4-------4-------4-------|
|-2-------2---------0-1-2---0-1-2---0-1-2---0-1-|
|-----------------3-----------------------------|
                  PM...     ...     ...     ...

The verse and stuff is just power chords which is kinda pointless to 
put here, that about it for the riffs, next is the solo:

|--------------------------------------|------------------------------|
|--------------------------------------|------------------------------|
|--------------------------------------|-15---------------------------|
|-------------15-----------------------|------18-17-15-18-17-15-------|
|-15----17-18------18-17-18---17-15----|------------------------18----|
|-----------------------------------18-|---------------------------16-|
[ Tab from: http://www.guitartabs.cc/tabs/m/megadeth/she_wolf_tab_ver_2.html ]
|---------------------------------------------------------------------|
|---------------------------------------------------------------------|
|---------------------------------------------------------------------|
|---------------------------------------------------------------------|
|-------------------------------------15-------15---16-15-18-15-16-18-|
|-15-16-18---15-16-18---15-16-18---16----16-18------------------------|

Play this twice, the second time, a second guitar plays a fifth above 
it. (Start on C with same pattern) Then:

|-------------------------------------------|
|-------------------------------------------|
|-------------------------------------------|
|-------------------------------------------|
|-15---18-17-15-17-18--------18-17-15-17-18-|
|-----------------------18------------------|

|-------------------------------------------|
|-------------------------------------------|
|-------------------------------------------|
|-------------------------------------------|
|------18-17-15-17-18--------18-17-15-17-18-|
|-16--------------------15------------------|

This plays twice, then is joined with Guitar playing a fifth above it
(Start on C with same pattern), plays twice more, and then:

GTR 1:                 GTR 2:
|----------------------|----------------------|
|----------------------|----------------------|
|----------------------|----------------------|
|----------------------|-17-17-17-17h19p17----|
|-15-15-15-15h17p15----|-------------------20-|
|-------------------18-|----------------------|

They place this 8 times and the song is done, this final solo part ha
s a really weird sound I can’t get, its probably one of the 24 pedals 
Marty used on this album

This isn’t perfect, so if you find any mistakes or want to include 
some of the parts I left out, please do.  
Comments