Megadeth - Shadow Of Deth Chords & Tabs

 

Shadow Of Deth Chords & Tabs

Megadeth Chords & Tabs

Version: 3 Type: Tab 0 ratings
1 star 2 stars 3 stars 4 stars 5 stars
comments

Shadow Of Deth Tab

   
-----------------------------------------------------------------------------
 Shadow of Deth - Megadeth
-----------------------------------------------------------------------------
Tabbed by:Christian Richard and Kornfreak4 (Metalman4415)
Email:crichard_1@hotmail.com  goalieman4444@yahoo.com

Tuning: Standard


rhythm
e|-------------------------------------------------------------------|
B|-------------------------------------------------------------------|
G|-------------------------------------------------------------------|
D|-------------------------------------------------------------------|
A|-------------------------------------------------------------------|
E|-3--0--1--2------3--0--1--2----------------------------------------|
                    repeat whole song until solo


                              :25 into song

Lead                           (Play Softly)
e|-------------------------------------------------------------------|
B|-------------------------------------------------------------------|
G|--------7----9~ ----9~ ---7------5---7~ -----10---9~ --9~ ---7-----|
D|--7~ ----------------------------------------------------------8~ -|
A|-------------------------------------------------------------------|
E|-------------------------------------------------------------------|

e|-------------------------------------------------------------------|
B|-------------------------------------------------------------------|
G|------7----9~ ------12~ ----9----7~ --7~ ---3--5~ ----5~---2----3~ |
D|--7~ --------------------------------------------------------------|
A|-------------------------------------------------------------------|
E|-------------------------------------------------------------------|


e|---------------------------------------------------------------------|
B|---------------------------------------------------------------------|
G|----------10-9----9-10--------10-9----10-9------------10-9----9-10---|
D|-------12------12----------12------12------12------12------12--------|
A|----12------------------12----------------------12-------------------|
E|---------------------------------------------------------------------|

e|---------------------------------------------------------------------|
B|---------------------------------------------------------------------|
G|----------10-12-10-9-10--------------10-9----9-10------10-9---10-9---|
D|-------12---------------12---------12-----12---------12-----12-----12|
A|----12---------------------12----12----------------12----------------|
E|---------------------------------------------------------------------|

e|---------------------------------------------------------------------|
B|---------------------------------------------------------------------|
G|--------10-9---9-10-------10-(12)(10)(9)(7)(10)(9)(7)(5)-------------|
D|------12-----12---------12-------------------------------------------|
A|----12----------------12---------------------------------------------|
E|---------------------------------------------------------------------|
[ Tab from: http://www.guitartabs.cc/tabs/m/megadeth/shadow_of_deth_tab_ver_3.html ]
e|---------------------------------------------------------------------|
B|---------------------------------------------------------------------|
G|--------12-11---11-12------12-11---12-11-----------------------------|
D|------14------14---------14-----14-------14--------------------------|
A|----14-----------------14--------------------------------------------|
E|---------------------------------------------------------------------|

e|---------------------------------------------------------------------|
B|---------------------------------------------------------------------|
G|--------12-11---11-12--------12-14-12-11-12-----------12-11---11-12--|
D|------14------14-----------14---------------14------14------14-------|
A|----14-------------------14-----------------------14-----------------|
E|---------------------------------------------------------------------|

e|---------------------------------------------------------------------|
B|---------------------------------------------------------------------|
G|--------12-11---12-11----------12-11---12-12-------------------------|
D|------14-----14-------14-----14-----14-------------------------------|
A|----14---------------------14----------------------------------------|
E|---------------------------------------------------------------------|

e|--------------------------------------------|----13-12---12-13-----------|
B|--------------------------------------------|10-15-----15----------------|
G|--------12-(14)(12)(11)(9)(12)(11)(9)(7)----|----------------------------|
D|------14------------------------------------|-play this twice when higher|
A|----14--------------------------------------|-part comes in--------------|
E|--------------------------------------------|----------------------------|

e|---------13-12----13-12------------13-12---12-13---------13-15-13-12-13--|
B|----10-15------15-------15----10-15------15---------10-15--------------15|
G|-------------------------------------------------------------------------|
D|-------------------------------------------------------------------------|
A|-------------------------------------------------------------------------|
E|-------------------------------------------------------------------------|

e|---------17-16---16-17--------17-16---17-16------------17-16---16-1--|
B|----14-19------19--------14-19------19------19----14-19------19------|
G|---------------------------------------------------------------------|
D|------------------------^------^-----^----------^--------------------|
A|--------------------higher part played with part in brackets---------|
E|---------------------------------------------------------------------|

e|----------13-(15)(13)(12)(10)(13)(12)(10)(8)(10)---------------------|
B|----10-15------------------------------------------------------------|
G|---------------------------------------------------------------------|
D|--------------------------------------------------------then same as-|
A|---------------------------------------------------------beginning---|
E|---------------------------------------------------------------------|


| /  slide up
| \  slide down
| h  hammer-on
| p  pull-off
| ~  vibrato
| +  harmonic
| x  Mute note
Comments