Megadeth - Seven Chords & Tabs

 

Seven Chords & Tabs

Megadeth Chords & Tabs

Version: 1 Type: Tab 0 ratings
1 star 2 stars 3 stars 4 stars 5 stars
comments

Seven Tab

                           "Seven"
                              BY
                           MEGADETH 

Yepp here is the bogie wogie song by Megadeth.
Cool with cool guitar riffs.
Check them out and lets bogie!

If you have any questions or comments send it to: 
"megamustain@hotmail.com"

-----------------------------------------------------------------------------
Explanations:  h - hammer on
               b - bend
-----------------------------------------------------------------------------

 Tune Normal A-flat....


 Intro/Verse
 -----------

|----- |--------------------------------||
|----- |--------------------------------||
|-9/-- |--------------------------------||
|-9/-- |-------------0---------------0--|| Repeat and flip 
|-7/-- |(2)--5--4--5---(2)--5--4--5-----|| between Guitar 1 & 2
|----- |-0--------------0---------------||



 Then End Verse With
 -------------------

 _Play 3x_______________________
|-------------------------------  --------------------------------------||
|-------------------------------  --------------------------------------|| 
|-----7---5----------7---5------  ------9---7---------------------------|| 
|-7---7---5--5---7---7---5--5---  --9---9---7--7---9--------9--7--------||
|-7----------5---7----------5---  --9----------7---9--7--9--------9--8--||
|-5--------------5--------------  --7--------------7--------------------||


Chours
------

|--Guitar-1--|
|--------------------------------------------------------------------------||
|--------------------------------------------------------------------------|| 
|--------------------------------------------------------------------------|| 
|--------------------------------------------------------------------------|| 
|---------------(2)---2--0----0----(2)---5--2--0-2--0-(5)-------------(2)--||
|--0--2--3-5--3--0----------3----3--0------------------3----0--2--3-5--0---|| 
 
[ Tab from: http://www.guitartabs.cc/tabs/m/megadeth/seven_tab.html ]
|--Guitar-2--|
|---------------0000--------------0000--------------0000------------------||
|---------------5555--------------5555--------------5555------------------|| 
|-------------------------------------------------------------------------|| 
|-------------------------------------------------------------------------|| 
|--------------------2--0----0---------5--2--0-2--0------------------(2)--||
|--0--2--3-5--5-----------3-----3--------------------------0--2--3-5--0---||

 
 Back and play verse...
 Play chours 2x...
 

 Solo Rythm
 ----------

 _play 4x___________________________
|-----------------------------------||
|-----------------------------------|| 
|-----------------------------------|| 
|-----------------------------------||
|----------2-----------------2------|| 
|--2--4--5----5--2---2--4--5----2---|| 
 

 _Play 2x_______________________  _Play 3x____________
|-------------------------------  --------------------||
|-------------------------------  --------------------|| 
|-----7---5----------7---5------  ------9---7---------|| 
|-7---7---5--5---7---7---5--5---  --9---9---7--7---9--||
|-7----------5---7----------5---  --9----------7---9--||
|-5--------------5--------------  --7--------------7--||


                            End Scale
|-------------------------  --------------------------------------||
|-------------------------  --------------------------------------||
|-------------------------  -9b-9-8-7---7-------------------------||
|--9/---9/---9/---9/---7--  ----------9---9-8-7---7---------9--7--||
|--9/---9/---9/---9/---7--  --------------------9---9-8-7---------||
|--7/---7/---7/---7/---9--  ------------------------------7-------||



Outro
-----

|-Guitar 1--|
|------------------------------------------------------------------------||
|------------------------------------------------------------------------||
|------------------------------------------------------------------------||
|----------9-------------------------------------9-----------------------||
|-7--9--10----10--7------------9-------7--9--10----10--7---7--9--10-9--7-||
|---------------------7--9--10----10-------------------------------------||
|
|-Guitar 2-|
|---------------------||
|---------------------||
|-9---7---------------||
|-9---7---7---5---2---||
|-7---5---7---5---2---||
|-0-------5---3---0---|| Repeat a cople of times


Then finish the song with...


|-Both Guitars-|
|-------------||
|-------------||
|-7-----------||
|-7---7---2---||
|-5---7---2---||
|-----5---0---||
Comments