Megadeth - Scorpion Chords & Tabs

 

Scorpion Chords & Tabs

Megadeth Chords & Tabs

Version: 2 Type: Tab 0 ratings
1 star 2 stars 3 stars 4 stars 5 stars
comments

Scorpion Tab

e|----0h7-----0h7-------0h7-------0h6--------0h6------0h6--------------------|
B|--------8-5------8-5-------8---------7-5-------7-5--------7----------------|
G|---------------------------------------------------------------------------|
D|---------------------------------------------------------------------------|
A|---------------------------------------------------------------------------|
E|---------------------------------------------------------------------------|

e|---------------------------------------------------------------------------|
B|---------------------------------------------------------------------------|
G|---------------------------------------------------------------------------|
D|--------5------------------------------------------------------------------|
A|----3----------------7---------------9-------------------------------------|
E|---------------5------------7-----------------3---2------------------------|
[ Tab from: http://www.guitartabs.cc/tabs/m/megadeth/scorpion_tab_ver_2.html ]
e|---------------------------------------------------------------------------|
B|---------------------------------------------------------------------------|
G|---------------------------------------------------------------------------|
D|----2------5-----/-/----/----/-/----/-----2---4-5--------------------------|
A|----2------5-----/-/----/----/-/----/-----2---4-5--------------------------|
E|----0------3-----/-/----/----/-/----/-----0---2-3----0-0----0----0-0----0--|

e|---------------------------------------------------------------------------|
B|---------------------------------------------------------------------------|
G|---------------------------------------------------------------------------|
D|----5-4-2----/-/----/----/-/----/----4--2----------------------------------|
A|----5-4-2----/-/----/----/-/----/----2--0-----3s5-4-3b---------------------|
E|----3-2-0----/-/----/----/-/----/------------------------------------------|
e|---------------------------------------------------------------------------|
Comments