Megadeth - Rust In Peacepolaris Chords & Tabs

 

Rust In Peacepolaris Chords & Tabs

Megadeth Chords & Tabs

Version: 1 Type: Tab 0 ratings
1 star 2 stars 3 stars 4 stars 5 stars
comments

Rust In Peacepolaris Tab

   
#----------------------------------PLEASE NOTE---------------------------------#
#This file is the author's own work and represents their interpretation of the #
#song. You may only use this file for private study, scholarship, or research. #
#------------------------------------------------------------------------------##


Gtr I (E A D G B E) - Megadeth, Rust In Peace...Polaris

 4/4
  Gtr I
|-----------------------|-----------------|-------------------------|
|-----------------------|-----------------|-------------------------|
|-----------------------|-----------------|-------------------------|
|-----4-----------4-----|-5---0-4-5---0-4-|-----4-----------4-------|
|-------4-3-3-------4-3-|-3-4---2-3-4---2-|-------4-3-3-------4-3---|
|-2-2---------2-2-------|---2-------2-----|-2-2---------2-2---------|

 1st&3rd        2nd             4th
|-------------||--------------||---------------------|
|------------o||-------------o||---------------------|
|-------------||--------------||---------------------|
|-5--5--5--5--||-5--5---5-5---||-5--5--5--5--5--5----|
|-3--3--3--3-o||-3--3---3-3--o||-3--3--3--3--3--3----|
|-------------||--------------||---------------------|


 12/8
                           ~~~~           ~~~~~~~
|-----------------------------------------------|
|-17b19r=17b19--15h17----------17-20p17-[20]b22-|
|---------------------16-(16)-------------------|
|-----------------------------------------------|
|-----------------------------------------------|
|-----------------------------------------------|


 ~~~~~~                         ~~~~~~~~~
|-------17--20pb22r20-17----------|-----------------|
|-(20)-------------------18-------|-----------------|
|---------------------------17----|-----------------|
|------------------------------19-|-(19)-(19)\------|
|---------------------------------|-----------------|
|---------------------------------|-----------------|


|---------------|--------------|---------------|-----------------|
|---------------|--------------|---------------|-----------------|
|---------------|--------------|---------------|-----------------|
|-5-------------|--------2--4--|-5-------------|---------2--4----|
|-3-2h3p2-------|--------0--2--|-3-2h3p2-------|-4-x-x-x-0--2----|
|---------5-2-0-|-5-2--2-------|---------5-2-0-|-2-x-x-x---------|


|---------------|--------------|---------------------|--------------|
|---------------|--------------|---------------------|--------------|
|---------------|--------------|---------------------|--------------|
|-5-------------|--------2--4--|-5-------------------|---------2--4-|
|-3-2h3p2-------|--------0--2--|-3-2h3p2-------------|-4-x-x-x-0--2-|
|---------5-2-0-|-5-2--2-------|---------5-2-0-5-2-0-|-2-x-x-x------|


||----------------|--------------|---------------|---------------|
||o---------------|--------------|---------------|---------------|
||----------------|--------------|---------------|---------------|
||--5-------------|--------2--4--|-5-------------|---------2--4--|
||o-3-2h3p2-------|--------0--2--|-3-2h3p2-------|-4-x-x-x-0--2--|
||----------5-2-0-|-5-2--2-------|---------5-2-0-|-2-x-x-x-------|


|---------------|--------------|---------------------|--------------|
|---------------|--------------|---------------------|--------------|
|---------------|--------------|---------------------|--------------|
|-5-------------|--------2--4--|-5-------------------|---------2--4-|
|-3-2h3p2-------|--------0--2--|-3-2h3p2-------------|-4-x-x-x-0--2-|
|---------5-2-0-|-5-2--2-------|---------5-2-0-5-2-0-|-2-x-x-x------|


|-------|-------------------|------|----------------------|
|-------|-------------------|------|----------------------|
|-------|-------------------|------|----------------------|
|-5--5--|-4-----------2--4--|-5--9-|-8-----------2--4-----|
|-3-----|---6-(6)\----0--2--|-3----|---9-(9)\----0--2-----|
|-------|-----------2-------|------|-----------2----------|


                                               PM
|-------|-------------------|------|---------------------|
|-------|-------------------|----8-|-7-------------------|
|----9--|-8-----------------|------|---8-(8)\------------|
|-5-----|---9-(9)\----2--4--|-5----|-------------2-------|
|-3-----|-------------0--2--|-3----|-------------0--2----|
|-------|-----------0-------|------|-----------0----0----|


|-----------------|---------------|-----------------|------------------|
|-----------------|---------------|-----------------|------------------|
|-----------------|---------------|-----------------|------------------|
|-----------------|---------------|-----------------|------------------|
|-4-------4-------|-4-------4-2-4-|-5-------5-------|-5-------7-7------|
|-2-x-x-x-2-x-x-x-|-2-x-x-x-2-0-2-|-3-x-x-x-3-x-x-x-|-3-x-x-x-5-5-x-x--|


|-----------------|---------------|-----------------|------------------|
|-----------------|---------------|-----------------|------------------|
|-----------------|---------------|-----------------|------------------|
|-----------------|---------------|-----------------|------------------|
|-4-------4-------|-4-------4-2-4-|-5-------5-------|-5-------7-7------|
|-2-x-x-x-2-x-x-x-|-2-x-x-x-2-0-2-|-3-x-x-x-3-x-x-x-|-3-x-x-x-5-5-x-x--|


|-----------------|---------------|-----------------|------------------|
|-----------------|---------------|-----------------|------------------|
|-----------------|---------------|-----------------|------------------|
|-----------------|---------------|-----------------|------------------|
|-4-------4-------|-4-------4-2-4-|-5-------5-------|-5-------7-7------|
|-2-x-x-x-2-x-x-x-|-2-x-x-x-2-0-2-|-3-x-x-x-3-x-x-x-|-3-x-x-x-5-5-x-x--|


|-----------------|---------------|-----------------|-----------------|
|-----------------|---------------|-----------------|-----------------|
|-----------------|---------------|-----------------|-----------------|
|-----------------|---------------|-----------------|-7-x-x-x-6--9\---|
|-4-------4-------|-4-------4-2-4-|-5-------5-------|-5-x-x-x-4--7\---|
|-2-x-x-x-2-x-x-x-|-2-x-x-x-2-0-2-|-3-x-x-x-3-x-x-x-|-----------------|


|-------------------------|----------------------|
|-------------------------|----------------------|
|-------------------------|----------------------|
|-4p2---2-----------4p2---|-2-----------5---3----|
|-----4---4-0-3-2-0-----4-|---4-0-3-2-0-3-5-1----|
|-------------------------|---------------3------|


|-------------------------|----------------------|
|-------------------------|----------------------|
|-------------------------|----------------------|
|-4p2---2-----------4p2---|-2-----------5---3----|
|-----4---4-0-3-2-0-----4-|---4-0-3-2-0-3-5-1----|
|-------------------------|---------------3------|


|-------------------------|----------------------|
|-------------------------|----------------------|
|-------------------------|----------------------|
|-4p2---2-----------4p2---|-2-----------5---3----|
|-----4---4-0-3-2-0-----4-|---4-0-3-2-0-3-5-1----|
|-------------------------|---------------3------|

[ Tab from: http://www.guitartabs.cc/tabs/m/megadeth/rust_in_peacepolaris_tab.html ]
|-------------------------|----------------------|
|-------------------------|----------------------|
|-------------------------|----------------------|
|-4p2---2-----------4p2---|-2-----------5---3----|
|-----4---4-0-3-2-0-----4-|---4-0-3-2-0-3-5-1----|
|-------------------------|---------------3------|


  1st&2nd                  3rd           PM----------|  PM--|
|-------------|---------||----------|-----------|----------------|
|-------------|--------o||----------|-----------|----------------|
|-------------|---------||----------|-----------|----------------|
|-4-----------|-2--4----||-4--------|-----------|----------------|
|-2-4-2-4---4-|-0--2---o||-2--4-2-4-|-4-4---4-5-|-4---4----4-5---|
|---2-0-2---2-|---------||----2-0-2-|-2-2-0-2-3-|-0-0-2--0-2-3---|


      PM------|  PM|  PM        PM----------|  PM--|
|-----------|-------------|-----------|--------------|---------------|
|-----------|-------------|-----------|--------------|---------------|
|-----------|-------------|-----------|--------------|---------------|
|-----------|-----------5-|-----------|--------------|-------------5-|
|-4-4---4-5-|-4----4----3-|-4-4---4-5-|-4---4----4-5-|-4-4---4-5-4-3-|
|-2-2-0-2-3-|-2--0-2--0---|-2-2-0-2-3-|-0-0-2--0-2-3-|-2-2-0-2-3-2---|


        PM----------|  PM--|       PM----------|  PM        PM--|
||------------|--------------|-----------|------------|-------------|
||o-----------|--------------|-----------|------------|-------------|
||------------|--------------|-----------|------------|-------------|
||------------|--------------|-----------|----------5-|-------------|
||o-4-4---4-5-|-4---4----4-5-|-4-4---4-5-|-4---4----3-|-4-4---4-5---|
||--2-2-0-2-3-|-0-0-2--0-2-3-|-2-2-0-2-3-|-0-0-2--0---|-2-2-0-2-3---|


  PM--|  PM--|                      ~~~~~                   ~~~~~
|--------------|-----------|---------------||------------|--------------------|
|--------------|-----------|-------17b19--o||-(17)-17p14-|-17b19--17p14-------|
|--------------|-----------|---------------||------------|--------------17----|
|--------------|-----------|----5----------||------------|--------------------|
|-4---4----4-5-|-4-4---4-5-|-4--3---------o||------------|--------------------|
|-0-0-2--0-2-3-|-2-2-0-2-3-|-2-------------||------------|--------------------|


|----------------------------------|
|-14h17p14----------17p14----------|
|----------17p14h17-------17p14p13-|
|----------------------------------|
|----------------------------------|
|----------------------------------|


|----------------------------------|----------17p14-------19p14----14-|
|-17p14-------------------------14-|-17p14h17-------17p14-------17----|
|-------17p14h17p14h17p14-16h17----|----------------------------------|
|----------------------------------|----------------------------------|
|----------------------------------|----------------------------------|
|----------------------------------|----------------------------------|


|-17b19--17-16-14--|-------19b21r=19b21r=19b21r=19-|
|------------------|----17-------------------------|
|------------------|-17----------------------------|
|------------------|-------------------------------|
|------------------|-------------------------------|
|------------------|-------------------------------|


                      PM----------|
||------------------|-----------------|
||o-----------------|-----------------|
||------------------|-----------------|
||------------------|-----------------|
||o-2h3p2p0-2p0-----|-----------------|
||--------------3p2-|-2-2-2-5-2-0-2---|


                    PM----------|                      PM----------|
|-----------------|----------------|-----------------|----------------|
|-----------------|----------------|-----------------|----------------|
|-----------------|----------------|-----------------|----------------|
|-----------------|----------------|-----------------|----------------|
|-2h3p2p0-2p0-----|----------------|-2h3p2p0-2p0-----|----------------|
|-------------3p2-|-2-2-2-5-2-0-2--|-------------3p2-|-2-2-2-5-2-0-2--|


                    PM------------------------------------------------|
|-----------------|-------------|-------------|--------------------------||
|-----------------|-------------|-------------|-------------------------o||
|-----------------|-------------|-------------|--------------------------||
|-----------------|-------------|-------------|--------------------------||
|-2h3p2p0-2p0-----|-------5---4-|-------5---4-|-------5---4-------5---4-o||
|-------------3p2-|-2-2-2-3-0-2-|-2-2-2-3-0-2-|-2-2-2-3-0-2-2-2-2-3-0-2--||


                      PM----------|
||------------------|----------------|-----------------|---------------|
||o-----------------|----------------|-----------------|---------------|
||------------------|----------------|-----------------|---------------|
||------------------|----------------|-----------------|---------------|
||o-2h3p2p0-2p0-----|----------------|-2h3p2p0-2p0-----|-2-2-2-2h3p2p0-|
||--------------3p2-|-2-2-2-5-2-0-2--|-------------3p2-|---------------|


                    PM------------|                     PM--------|
|-----------------|-----------------|-----------------|---------------|
|-----------------|-----------------|-----------------|---------------|
|-----------------|-----------------|-----------------|---------------|
|-----------------|-----------------|-----------------|---------------|
|-2h3p2p0-2p0-----|-5-4-3-2---------|-2h3p2p0-2p0-----|-------5---4---|
|-------------3p2-|---------5-3-2-2-|-------------3p2-|-2-2-2-3-0-2---|


  PM--------------------------------------------------------|
                                           4x                    4x
|-------------|-------------|--------------||-||-----------------||----|
|-------------|-------------|-------------o||-||o---------------o||----|
|-------------|-------------|--------------||-||-----------------||----|
|-------------|-------------|--------------||-||-----------------||----|
|-------5---4-|-------5---4-|-------5---4-o||-||o-------5---4---o||----|
|-2-2-2-3-0-2-|-2-2-2-3-0-2-|-2-2-2-3-0-2--||-||--2-2-2-3-0-2----||----|


        PM-----------------|       PM-------------|
||------------|--------------|-----------|---------------|
||o-----------|--------------|-----------|---------------|
||------------|--------------|-----------|---------------|
||------------|--------------|-----------|----------5----|
||o-4-4---4-5-|-4---4----4-5-|-4-4---4-5-|-4---4----3----|
||--2-2-0-2-3-|-0-0-2--0-2-3-|-2-2-0-2-3-|-2-0-2--0------|


      PM|     PM---------|
|-----------|--------------|-----------|--------||----|
|-----------|--------------|-----------|-------o||----|
|-----------|--------------|-----------|--------||----|
|-----------|--------------|-----------|-----5--||----|
|-4-4---4-5-|-4---4----4-5-|-4-4---4-5-|-4---3-o||----|
|-2-2-0-2-3-|-0-0-2--0-2-3-|-2-2-0-2-3-|-2------||----|



***************************************************************************************
* Generated using Power Tab Editor by Brad Larsen - http://powertab.guitarnetwork.org *
***************************************************************************************
Comments