Megadeth - Prince Of Darkness Chords & Tabs

 

Prince Of Darkness Chords & Tabs

Megadeth Chords & Tabs

Version: 1 Type: Tab 0 ratings
1 star 2 stars 3 stars 4 stars 5 stars
comments

Prince Of Darkness Tab

                     "PRINCE OF DARKNESS"
                          BY MEGADETH 

Prince Of Darkness is the darkest song on "Risk".
I think this song is awesome...its one of my favorites
of all Megadeth songs. Se if you like it to.

If you have any questions or comments send it to: 
"megamustain@hotmail.com"

-----------------------------------------------------------------------------
Explanations:  h - hammer on
               b - bend
-----------------------------------------------------------------------------
Tune 1 step down...

   After 1:15 - 1:16 sec...

G-|-2-2-2----2-2-2-2-2-2---|
D-|-0-0-0----0-0-0-0-0-0---|



   Verse:
   -----
[ Tab from: http://www.guitartabs.cc/tabs/m/megadeth/prince_of_darkness_tab.html ]
C-|----------------------0----------------------7-7-------------|
G-|-2-2-2----2-2-2-2-2-2-0-3---2-2---2-2-2-2----5-5--8-7-5-2-2--|
D-|-0-0-0----0-0-0-0-0-0---1---0-0---0-0-0-0---------6-5-3-0-0--|

   Then:

C-|-10-10-10-10-10-10-10-10--||
G-|--8--8--8--8--8--8--8--8--||
D-|--------------------------||



   Chorus:

G-|-----------------------||
D-|--0--3--5--6--3-5-6-3--||


C-|----------------------------------||
G-|-3-3-3-3-2--3-3-3-3-2--3-3-3-3-2--||
D-|-1-1-1-1-0--1-1-1-1-0--1-1-1-1-0--|| play 3x


  Then:

C-|---------------||
G-|----5---4---3--||
D-|--0-3-0-2-0-1--||



   Outro:

C-|--------------------------------  ------------------2--||
G-|---6---5---4---3-----5---4---3--  ---6---5---4---3--2--||
D-|-0-4-0-3-0-2-0-1---0-3-0-2-0-1--  -0-4-0-3-0-2-0-1--0--||
Comments