Megadeth - Poison Was The Cure Chords & Tabs

 

Poison Was The Cure Chords & Tabs

Megadeth Chords & Tabs

Version: 1 Type: Bass Tab 0 ratings
1 star 2 stars 3 stars 4 stars 5 stars
comments

Poison Was The Cure Bass Tab

Artist- David Ellefson
Tabbed by- Rob (monkeystuff@hotmail.com)

Pretty sure this is right when played on standard tuning (EADG), enjoy...

Intro- Repeat 7 times          
|10-9-------10-9---10-9--------------------|
|11-10------11-10--11-10-------------------|
|-----000000-----00-----003400-000000000000|
|------------------------------------------|

End of Intro- After repeating 7 times play...
|10-9-------10-9---10-9--------------------|
|11-10------11-10--11-10-----/7------------|
|-----000000-----00-----00340--------------|
|------------------------------------------|


Verse Riff1- Repeat 6 times
|------------------------------------------|
|------------------------------------------|
|---------------333333-5-3-2---------------|
|55555555555-0h3---------------------------|

|------------------------------------------|
|------------------------------------------|
|---------------333333-5-6-7---------------|
|55555555555-0h3---------------------------|

Verse Riff2-
|-------------|-------------|
|-------------|-------------|
|-------------|-------------|
|0-1-2-3-2-1-0|0-1-2-3-2-1-2|

|-----------------------------------------------|
|-----------------------------------------------|
|-----------------------------------------------|
|0-1-2-3-2-0-2-3-4-5-4-3-4-5-6-7-6-5-6-7-8-9-8-7|
[ Tab from: http://www.guitartabs.cc/tabs/m/megadeth/poison_was_the_cure_btab.html ]
Verse Riff3-
|--------------------------------|
|--------------------------------|
|/7--------7\6--------6\5--------|
|--00000000---00000000---00000000|

|-----------------------------------------------|
|-----------------------------------------------|
|5\4--------4\3--------3\2--------2\1--------1p0|
|---00000000---00000000---00000000---00000000---|

Pre-Solo Riff1-
|-----|-------------|---------------|
|-----|-------------|---------------|
|--3-0|-------------|----------3----|
|0----|0-1-2-3-2-1-0|0-1-2-3-4---5-2|

Pre-Solo Riff2- Repeat 3 times
|-----------------------------------|
|-----------------------------------|
|0-------3-------5--------8----7----|
|-0000000-0000000-00000000-0000-0000|

End of Pre-Solo- After repeating 3 times play...
|-------------------------|---------------|
|-------------------------|----6-------5--|
|0-------3-------5--------|6-7---7-5-6---6|
|-0000000-0000000-00000000|---------------|

Solo Riff-
|-----------------------------------|
|-----------------------------------|
|0-------3-------5--------8888877777|
|-0000000-0000000-00000000----------|

|-------------------------------------------------------|
|-------------------------------------------------------|
|0-------0-1-2-3--------3-4-7-5--------5-7-8-88888-77777|
|-0000000-------00000000-------00000000-----------------|

|-----------------------------|
|-----------------------------|
|0-0-1-2-3-3-4-7-5-5-7-8-8-7-0|
|-----------------------------|

End
Comments