Megadeth - Paranoid Chords & Tabs

 

Paranoid Chords & Tabs

Megadeth Chords & Tabs

Version: 2 Type: Tab 0 ratings
1 star 2 stars 3 stars 4 stars 5 stars
comments

Paranoid Tab

   
Megadeth
"Paranoid (Solo)"
Tabbed by: Dave N.
Did this solo by ear. Sounds about 90% right except for some of the quick stuff at the end that's hard to 
decipher from the recording. 


E----12-12----12-12---12---------------------------------------------------
B----12-12----12-12---12---------------------------------------------------
G-14^------14^-----14^---14-12~--------------------------------------------
D------------------------------14~--12-12h14p12----12----------------------
A-----------------------------------------------14----14-13-12---12--------
E--------------------------------------------------------------15---15-12--


E-17p15p12-17p12p15-17p12p15-17p12p15-17p15p12-17p12p15-17p12p15-17p12p15-
B-------------------------------------------------------------------------
G-------------------------------------------------------------------------
D-------------------------------------------------------------------------
A-------------------------------------------------------------------------
E-------------------------------------------------------------------------

[ Tab from: http://www.guitartabs.cc/tabs/m/megadeth/paranoid_tab_ver_2.html ]
E-17p15p12-17p12p15-17p12p15-17p12p15-17p15p12-17p12p15-17p12p15-17p12p15-
B-------------------------------------------------------------------------
G-------------------------------------------------------------------------
D-------------------------------------------------------------------------
A-------------------------------------------------------------------------
E-------------------------------------------------------------------------


E-15p12p10-15-15p12p10-15-15p12p10-15p12p10-17p12p10-15p12p10-17p12p10----
B-------------------------------------------------------------------------
G-------------------------------------------------------------------------
D-------------------------------------------------------------------------
A-------------------------------------------------------------------------
E-------------------------------------------------------------------------


E-15p12p10--15p12----12-----------------------------------------------------
B-----------------15----15^-12----------------------------------------------
G------------------------------12-14^(pick this while releasing the bend)---
D---------------------------------------------------------------------------
A---------------------------------------------------------------------------
E---------------------------------------------------------------------------

Then just run back up the E minor penatonic scale lightning fast sorta like this, 
but you can play whatever notes you want from that scale:

E-------------------------------------------------
B-------------------------------------------------
G-14p12----12-------------------------------------
D-------14---14-12-14p12----12--------------------
A------------------------14---14p12---------------
E-----------------------------------15-12---------
Comments