Megadeth - Paranoid Chords & Tabs

 

Paranoid Chords & Tabs

Megadeth Chords & Tabs

Version: 1 Type: Bass Tab 0 ratings
1 star 2 stars 3 stars 4 stars 5 stars
comments

Paranoid Bass Tab

Paranoid - Megadeth

By: Jon Craven (i_apathy@hotmail.com)
For questions, comments, feedback, an outline of the timing, write the above
address.

Note:
  -Played with a pick.

(4/4)(188 bpm)
Standard tuning

/ - slide up
r - eighth rest

Intro: (x2)(0:05)
|-----------79--79|
|---------79--79--|
|/7-77-77---------|
|-----------------|

Verse 1 (fill/solo): (x2)(0:10)
|----------------|----------------|
|----------------|--------5-------|
|7777777777777777|55555555--5-7-r-|
|----------------|----------------|

Chorus: (x2)(0:21)
|----------5---7-|----------------|
|---------5---7--|----------------|
|777777773---5---|7777777777777777|
|----------------|----------------|
[ Tab from: http://www.guitartabs.cc/tabs/m/megadeth/paranoid_btab.html ]
Verse 2 (fill 2): (x2)(0:31)
|--------------79|----------------|
|------------79--|--------5-------|
|777777777777----|55555555--5-7-r-|
|----------------|----------------|

Bridge: (x2)(0:41)
|-9-9-9-9-9-9-9-9|-7-7-7-7-7-7-7-7|
|----------------|----------------|
|7-7-7-7-7-7-7-7-|5-5-5-5-5-5-5-5-|
|----------------|----------------|

Fill (x2)
Verse 2 (x2)
Solo (x4)
Fill 2 (x2)
Verse 1 (x2)
Chorus (x2)
Verse 2 (x2)

Outro: (2:14)
|----------------|----------------|--------------79|----------------|
|----------------|--------5-------|------------79--|--------5-------|
|7777777777777777|55555555--5-7-r-|777777777777----|55555555--5---r-|
|----------------|----------------|----------------|------------0---|

Rest till end
Comments