Megadeth - No More Mr Nice Guy Chords & Tabs

 

No More Mr Nice Guy Chords & Tabs

Megadeth Chords & Tabs

Version: 1 Type: Tab 0 ratings
1 star 2 stars 3 stars 4 stars 5 stars
comments

No More Mr Nice Guy Tab

NO MORE MR. NICE GUY
[Megadeth - Hidden Treasures]
Transcribed by Christopher Heer
Five Magics - http://www.nebula.on.ca/heer/fivemagics/index.html


Standard Tuning

Intro
--5-5-33--3-3-------------------------------
--5-5-55--3-3-------------------------------
---------------47-4----2-2-00--0-0-----------
--------------5----75--2-2-22--0-0-----------
------------------------------------25-20----
-----------------------------------3-----3---

Interlude
-------------------------------------
-------------------------------------
-4-----4-3-2-------------------------
-2-----4-3-2-2-----------------------
-2-2-2-2-1-0-2-----------------------
-------------0-0-0-0-0-0-------------
[ Tab from: http://www.guitartabs.cc/tabs/m/megadeth/no_more_mr_nice_guy_tab.html ]
Verse
------------------------------------------------------------
------------------------------------------------------------
-9---------------9---------------7---------------4-4--7--9--
-7---------------6---------------5---------------4-4--7--9--
----0-0-0-0-0-0-----0-0-0-0-0-0-----0-0-0-0-0-0--2-2--5--7--
------------------------------------------------------------

Pre-chorus
-------------------------------------
-------------------------------------
-11-11-11109-------7-7-7679-9-979----
-11-11-111099-9-9877-7-7679-9-979----
--9--9--9-879-9-9875-5-5457-7-757----
------------7-7-765------------------

Chorus
---------------------------------------
---------------------------------------
--1111--7-7--9-9-----1111--7-7-----7-9-
--1111--7-7--9-9-----1111--7-7-7-9-5-7-
---9-9--5-5--7-7------9-9--5-5-5-7-----
---------------------------------------
Comments