Megadeth - New World Order Chords & Tabs

 

New World Order Chords & Tabs

Megadeth Chords & Tabs

Version: 3 Type: Tab 0 ratings
1 star 2 stars 3 stars 4 stars 5 stars
comments

New World Order Tab

   
Megadeth - New World Order
Tabbed By - Garry Foster (gazfoster@hotmail.com)

| /  slide up
| \  slide down
| h  hammer-on
| p  pull-off
| ~  vibrato
| +  harmonic
| x  Mute note
|PM  Palm Mute 

I'm sure ive got some of it but its a very hard song to tab so i did my best.

intro:

play this 7 times
 riff 1                                             end of riff 1
|----------------------------------------------------------------|
|----------------------------------------------------------------|
|----------------------------------------------------------------|
|--2--------2------------5-----------------------7---------------|
|--2---0h2-----0h2--5----5-----------------------5--------5--4---|
|--0---------------------3-------333-3--2--0--------------3--2---|


|----------------------------------------------------------------|
|----------------------------------------------------------------|
|----------------------------------------------------------------|
|--2--------2------------5-----------7--6--5----------------2----|
|--2---0h2-----0h2--5----5-----------5--4--3-----5--4--3----2----|
|--0---------------------3-------333----------0--3--2--1----0----|



verse:



guitar 1
play this 2 times
 riff 2
|---------------------------------------------------------------------------------
|-----2---1---0-----2---1p0------2---1---0-----2---1p0-----2---1---0-----2---1p0--
|---0---0---0-----0---0--------0---0---0-----0---0-------0---0---0-----0---0------
|-2-------------2------------2-------------2------------2-------------2-----------
|---------------------------------------------------------------------------------
|---------------------------------------------------------------------------------
 
                      end of riff 2
------------------------------------|
------2---1---0---------------------|
----0---0---0------------0----------|
--2---------------0--2------3--3h2--|
------------------------------------|
------------------------------------|

fill 1
guitar 2
let ring
|------|
|------|
|------|
|-9----|
|-9----|
|-7~---|


bridge:


guitar 1
play this 2 times
 riff 3                                                                      end of riff 3
|------------------------------------------------------------------------------------------|
|------------------------------------------------------------------------------------------|
|------------------------------------------------------------------------------------------|
|------2------------------------2---------------------2-----------------------0---5-5-4-4--|
|----2------------------------2--------2---0--------2-----------------------0-----5-5-4-4--|
|--0-------0--2--3--2h3p2---0--------3---2-------0-------0--2--3--2h3p2---3-------3-3-2-2--|


guitar 2
 riff 4
|---------------------------------------------------------------------------------
|-----12---10---------------12---10----------------12---10------------------------
|-9p0----9----9-12-11---9p0----9----12-11-10---9p0----9----9-12-11-12---14b-12-11-
|---------------------------------------------------------------------------------
|---------------------------------------------------------------------------------
|---------------------------------------------------------------------------------


                                                                     end of riff 4
                                                                         full
-----------------------------------------------------------------------------17b---|
-----12---10---------------12---10----------------12---10--------------------------|
-9p0----9----9-12-11---9p0----9----12-11-10---9p0----9----9-12-11-12---14^-12------|
-----------------------------------------------------------------------------------|
-----------------------------------------------------------------------------------|
-----------------------------------------------------------------------------------|


chorus:



guitar 1 plays riff 1, 4 times



verse:



guitar 1 plays riff 2, 2 times
guitar 2 plays fill 1, 2 times



bridge:


[ Tab from: http://www.guitartabs.cc/tabs/m/megadeth/new_world_order_tab_ver_3.html ]
guitar 1 plays riff 3, 2 times
guitar 2 plays riff 4, 2 times



chorus:



guitar 1 plays riff 1, 4 times



solo 1: 



guitar 1
play this 2 times
|----------------------------------------------------------------|
|----------------------------------------------------------------|
|----------------------------------------------------------------|
|--4--------4-------2----------------------------7---------------|
|--4---2h4------2--------------------------------5--------7--7---|
|--2---------------------5-------000-5--4--0--------------5--4---|



guitar 2 
(not sure about this)              full
|14-12-14~~~---------------------------------------------------------------------------------------------|
|------------14p13p12--------------------------------------14p13p12--------------------------------------|
|----------------------14--14--16^--14h16p14------12h13h14------------14h13h12---------------------------|
|----------------------------------------------14-----------------------------14h13h12-------------------|
|--------------------------------------------------------------------------------------15h14h12----------|
|-----------------------------------------------------------------------------------------------15h14h12~|


and after solo:
guitar 1
|-----------------------------------------------------------------
|-----------------------------------------------------------------
|-----------------------------------------------------------------
|--2--------6-------4-----------------------------9---------------
|--2---4h6------4--------2------------------------7--------9--8---
|--4----------------------------444-7--6--4----------------7--6---


------------------------------------------------------------|
------------------------------------------------------------|
------------------------------------------------------------|
--2--------6-------4------------------------------------2---|
--2---4h6------4--------2-------------------------------2---|
--4----------------------------444-7--6--5--4--3--2--1--0---|


guitar 2 plays this under guitar 1 (in the very end of riff) after solo:
(not sure at all)
|-----------|
|-----------|
|-----------|
|-----------|
|--7-8-7-8--|
|--7-9-7-9--|



verse:
=====


guitar 1 plays riff 2
guitar 2 plays fill 1



Solo 2:  (sorry, can't tab the solo but here's the solo riffs for guitar 1)
======


guitar 1
|------------------------|
|------------------------|
|------------------------|
|------------------------|
|-----5-5-----3--0-------|
|--3-------3--------3h5--|


play this 3 times
 riff 5
|-----------------------------------------------|
|-----------------------------------------------|
|-----------------------------------------------|
|-----------------------------------------------|
|--3/4-4-4-4----3-4--7--------------------------|
|--1/2-2-2-2--0-1-2--5--5-5-5-5-5--7-7-7-7-7----|


 riff 6
|--------------------------------------|
|--------------------------------------|
|--------------------------------------|
|--------------------------------------|
|--7h9-9--8-8-7---6h7-7-5h6-6---7-8-4--|
|-------------------------------5-6-2--|


 riff 7
|---------------------------------|
|---------------------------------|
|---------------------------------|
|--2h3p2p0h2p0--------------------|
|--------------2h3p2p0h2p0--------|
|--------------------------3p2p0--|


then:
guitar 1 plays riff 5, 2 times,
guitar 1 plays riff 6,
guitar 1 plays riff 7



guitar 1
|-----------|
|-----------|
|-----------|
|--4--2--5--|
|--4--2--5--|
|--2--0--3--|



guitar 1
play this 4 times
|-------------------------------------------------|
|-------------------------------------------------|
|-------------------------------------------------|
|-------------------------------------------------|
|--4-4---4-7---4-4---4-6---4-4---4-5---4-4---4-2--|
|--2-2-0-2-5---2-2-0-2-4---2-2-0-2-3---2-2-0-2-0--|



outro:



guitar 1 plays riff 5, 3 times
guitar 1 plays riff 6,
guitar 1 plays riff 7


and then guitar 1:
|----------------|
|----------------|
|----------------|
|--4--2-------5--|
|--4--2-------5--|
|--2--0-------3--|


gazfoster@hotmail.com
Comments