Megadeth - New World Order Chords & Tabs

 

New World Order Chords & Tabs

Megadeth Chords & Tabs

Version: 1 Type: Bass Tab 0 ratings
1 star 2 stars 3 stars 4 stars 5 stars
comments

New World Order Bass Tab

   
New World Order - Megadeth
Jon Craven (nojnevarc@hotmail.com; www.geocities.com/larsramirez2001)
(enters @ 0:11)

Riff 1: (x2)
G:-----------------|------------|-----------------|------------|
D:-----------------|------------|-----------------|------------|
A:-----------------|------------|-----------------|------------|
E:-0-0-R-0-R-0-0-R-|-0--R--R--R-|-0-0-R-0-R-1-1-R-|-1--R--R--R-|

Riff 2: (x4)
G:----------|----------|----------|----------|
D:----------|----------|----------|----------|
A:----------|----------|----------|----------|
E:----------|----------|----------|----------|

Fill: (?)
G:----5-----5-|
D:------------|
A:-3-----3----|
E:------------|

Riff 4: (x2)
G:-----------------|------------|
D:-----------------|------------|
A:-----------------|------------|
E:-1-1-R-1-R-1-1-R-|-1--R--R--R-|

Pause for 16 measures

Fill 2:
G:----------|-----------|----------|----------|----------|----------|----------|----------|
D:----------|-----------|----------|----------|----------|----------|----------|----------|
A:----------|-----------|----------|----------|----------|----------|-3*******-|-2*******-|
E:-0*******-|-*******-0-|-0*******-|-********-|-0*******-|-********-|----------|----------|

Riff 4 (x2)
Riff 2 (x4)
Fill
Riff 4 (x2)

Riff 5: (x2)
G:-----------------|-----------------|-----------------|-----------------|-----------------|-----------------|-----------------|-----------------|-----------------|
D:-----------------|-----------------|-----------------|-----------------|-----------------|-----------------|-----------------|-----------------|-----------------|
A:-----------------|-----------------|-----------------|-----------------|-----------------|-----------------|-----------------|-3-3-3-3-3-3-3-3-|-2-2-2-2-2-2-2-2-|
E:-0-0-0-0-0-0-0-0-|-0-0-0-0-0-0-0-0-|-0-0-0-0-0-0-0-0-|-0-0-0-0-0-0-0-0-|-0-0-0-0-0-0-0-0-|-0-0-0-0-0-0-0-0-|-0-0-0-0-0-0-0-0-|-----------------|-----------------|

Fill 3:
G:-----------------|
D:-----------------|
A:-2-2-2-2-5-5-5-5-|
E:-----------------|
[ Tab from: http://www.guitartabs.cc/tabs/m/megadeth/new_world_order_btab.html ]
Riff 6:
G:-----------------|-----------------|-----------------|-----------------|-----------------|
D:-----------------|-----------------|-----------------|-----------------|-----------------|
A:-5-5-5-5-5-5-5-5-|-5-5-5-5-5-5-5-5-|-5-5-5-5-5-5-5-5-|-5-5-5-5-5-5-5-5-|-5-5-5-5-5-5-5-5-|
E:-----------------|-----------------|-----------------|-----------------|-----------------|

G:-----------------|-----------------|-----------------|-----------------|-----------------|
D:-----------------|-----------------|-----------------|-----------------|-----------------|
A:-5-5-5-5-5-5-5-5-|-6-6-6-6-6-6-6-6-|-5-5-5-5-5-5-5-5-|-1-1-1-1-1-1-1-1-|-1-1-1-1-1-1-1-1-|
E:-----------------|-----------------|-----------------|-----------------|-----------------|

G:-----------------|-----------------|-----------------|-----------------|-----------------|
D:-----------------|-----------------|-----------------|-----------------|-----------------|
A:-1-1-1-1-1-1-1-1-|-1-1-1-1-1-1-1-1-|-1-1-1-1-1-1-1-1-|-1-1-1-1-1-1-1-1-|-----------------|
E:-----------------|-----------------|-----------------|-----------------|-2-2-2-2-2-2-2-2-|

Riff 4 (x3)

Riff 7:
G:-----------------|------------------|-----------------|-----------------|-----------------|
D:-----------------|---/3-3-3-3-3-3-3-|-----------------|-----------------|-----------------|
A:-----------------|------------------|-----------------|-----------------|-----------------|
E:-1-1-R-1-R-1-1-R-|-1----------------|-1-1-1-1-1-1-1-1-|-1-1-1-1-1-1-1-1-|-1-1-1-1-1-1-1-1-|

G:-----------------|-----------------|-----------------|-----------------|-----------------|
D:-----------------|-----------------|-----------------|-----------------|-----------------|
A:-----------------|-----------------|-----------------|-----------------|-----------------|
E:-1-1-1-1-1-1-1-1-|-1-1-1-1-1-1-1-1-|-1-1-1-1-1-1-1-1-|-1-1-1-1-1-1-1-1-|-1-1-1-1-1-1-1-1-|

Riff 8: (x2)
G:-----------------|------------|-----------------|------------|
D:-----------------|------------|-----------------|------------|
A:-----------------|------------|-----------------|------------|
E:-1-1-R-1-R-1-1-R-|-1--R--R--R-|-1-1-R-1-R-0-0-R-|-0--R--R--R-|

Riff 9: (3:24)
G:------------|------------|------------|
D:------------|------------|------------|
A:------------|------------|------------|
E:------------|------------|------------|

Break till end
Comments