Megadeth - Moto Psycho Chords & Tabs

 

Moto Psycho Chords & Tabs

Megadeth Chords & Tabs

Version: 4 Type: Tab 0 ratings
1 star 2 stars 3 stars 4 stars 5 stars
comments

Moto Psycho Tab

                             MEGADETH
                            MOTO PSYCHO               x8
e:-------------------------------------------------------:
B:-------------------------------------------------------:
G:-------------------------------------------------------:
D:-------------------------------------------------------:
A:----------------------------------------------1---3-1--:
E:--1-3-3-3-3--1-3-3-3-3--1-3-3-3-3--1-3-3-3-3----3------:
    pm=====    =======    =======    =======      =

e:-------------------------------------------------------------:
B:-------------------------------------------------------------:
G:-------------------------------------------------------------:
D:-------------------------------------------------------------:
A:--6-6-6-6-6-6-6-6-6-6-6-6-6-6-6-6-6-6-6-6-6-6-6-6-6-6-6-6-6--:
E:-------------------------------------------------------------:

e:---------------------------------------------------------------------:
B:---------------------------------------------------------------------:
G:---------------------------------------------------------------------:
D:-------------------------------------------------------------7--X-7--:
A:--5-5-0-3-3-3-3-3-3-3-3-3-3-3-3-3-3-3-3-3-3-3-3-3-3-3-3-3-3--5--X-5--:
E:---------------------------------------------------------------------:
 
     1 ~~~~~           1 1/2         1
e:-----------15-------------------------------------15--19^15----19^15--:
B:--10b---------18^15--20b----(20)--18b--18------18-----------18--------:
G:----------------------------------------------------------------------:
D:----------------------------------------------------------------------:
A:----------------------------------------------------------------------:
E:----------------------------------------------------------------------:
 
                                                              ~~~        ~~~
e:-----18----15^18^15----15----------------15-------------------------------:
B:--18----18----------18----18-17-15----------------------------------------:
G:-----------------------------------17^18----18-17-15----17-15-------------:
D:-----------------------------------------------------17---------17-15-17--:
A:--------------------------------------------------------------------------:
E:--------------------------------------------------------------------------:

              w/ wah-wah
e:---------:---------------------------:-----------------------------------:
B:---------:--16----------16----16-----:--------16----16-------------------:
G:---------:-----15----------------15--:-----------------15----------------:
D:--(17)\--:--------17-15----17--------:--17-15----17-------17-15----------:
A:---------:---------------------------:-----------------------------------:
E:---------:---------------------------:-----------------------------------:
:
:
:
e:-------------------------------------:-----------------------------------:
B:-------------------------------------:-----------------------------------:
G:-------------------------------------:-----------------------------------:
D:-------------------------------------:-----------------------------------:
A:--6-6-6-6-6-6-6-6-6-6-6-6-6-6-6-6----:--6-6-6-6-6-6-6-6-6-6-6-6-6-5-5-0--:
E:-------------------------------------:-----------------------------------:

      w/ wah-wah
e:-----------------------------------:------------------------------:
B:-----------------------------------:------------------------------:
G:--17-15---------------17--15-------:--17------------18-15---------:
D:---------17-15-17--17--------------:-----15--17--17-------17-15---:
A:-----------------------------------:------------------------------:
E:-----------------------------------:------------------------------:
:
:
:
e:-----------------------------------:------------------------------:
B:-----------------------------------:------------------------------:
G:-----------------------------------:------------------------------:
D:-----------------------------------:----------------------7--x-7--:
A:--3-3-3-3-3-3-3-3-3-3-3-3-3-3-3-3--:--3-3-3-3-3-3-3-3-3-3-5--x-5--:
E:-----------------------------------:------------------------------:

   wah off
e:----------------------------:-----------------------:
B:----------------------------:-----------------------:
G:--12----12----12----12------:--12----12----12----12-:
D:----------------------------:-----------------------:
A:----------------------------:-----------------------:
E:----------------------------:-----------------------:
:
:
:                                                  
e:----------------------------:-----------------------:
B:----------------------------:-----------------------:
G:----------------------------:-----------------------:
D:-------------------------3--:----------------3------: x2
A:-------------------------1--:----------------1---3--:
E:--3--3-3-3--3-3-3--3-3-3----:--3--3-3-3--3-3-----1--:
    pm==================         pm===========
                                            * =echo repeats
e:-----------------------------------------------------------------------:
B:-----------------------------------------------------------------------:
G:-----------------------------------------------------------------------:
D:-------------------------3----------------3----------------------3-----:
A:-------------------------1----------------1---3---5---4---3------1--3--:
E:--3--3-3-3--3-3-3--3-3-3----3--3-3-3--3-3-----1---3---2---1---------1--:
    pm==================      pm===========               

e:-------------------------------------------------------:
B:-------------------------------------------------------:
G:-------------------------------------------------------: x4
D:-------------------------------------------------------:
A:----------------------------------------------1---3-1--:
E:--1-3-3-3-3--1-3-3-3-3--1-3-3-3-3--1-3-3-3-3----3------:
    pm=====    =======    =======    =======      =
[ Tab from: http://www.guitartabs.cc/tabs/m/megadeth/moto_psycho_tab_ver_4.html ]
e:-------------------------------------------------------------:
B:-------------------------------------------------------------:
G:-------------------------------------------------------------:
D:-------------------------------------------------------------:
A:--6-6-6-6-6-6-6-6-6-6-6-6-6-6-6-6-6-6-6-6-6-6-6-6-6-6-6-6-6--:
E:-------------------------------------------------------------:

e:---------------------------------------------------------------------:
B:---------------------------------------------------------------------:
G:---------------------------------------------------------------------:
D:-------------------------------------------------------------7--X-7--:
A:--5-5-0-3-3-3-3-3-3-3-3-3-3-3-3-3-3-3-3-3-3-3-3-3-3-3-3-3-3--5--X-5--:
E:---------------------------------------------------------------------:

w/ wah-wah 1/2         1/2        1/2
e:-------------------------------------------------------------:
B:--3^6^3-------3^6^3-------3-6^3------6^3--3--6^3-----6^3--3--:
G:----------6b----------6b---------6b---------------6----------:
D:-------------------------------------------------------------:
A:-------------------------------------------------------------:
E:-------------------------------------------------------------:
:
:
:
e:-----------------------------------------------:
B:-----------------------------------------------:
G:-----------------------------------------------:
D:-----------------------------------------------:
A:-----------------------------------------------:
E:--1--3--3--3--3---1--3--3--3--3---1--3--3--3---: 
    pm========      pm========      pm========
                                           ~~~~
e:----5^3^5^3----------------------------------:
B:--3---------6^5^3--5--6^5^3------------------:
G:----------------------------3---5^4^3---3----:
D:------------------------------5-------5------:
A:---------------------------------------------:
E:---------------------------------------------:
:
:
:
e:------------------------------:
B:------------------------------:
G:------------------------------:
D:------------------------------:
A:--------------------1---3--1--:
E:--3---1--3--3--3--3---3-------:
        pm========      =
     1              1          1/2
e:-------15--------------------------------------:
B:----------18^15--18b--18^15--------------------:
G:--17b------------------------17b--18^17^15-----:
D:-------------------------------------------17--:
A:-----------------------------------------------:
E:-----------------------------------------------:
:
:
:
e:----------------------------------------------:
B:----------------------------------------------:
G:----------------------------------------------:
D:----------------------------------------------:
A:----------------------------------------------:
E:--1--3--3--3--3---1--3--3--3--3---1--3--3--3--:
    pm========      ==========      ==========

e:--20-18-15-15-----------------------------:
B:--------------18-15-----------------------:
G:--------------------18-17-15--------------:
D:-----------------------------17-16-15-13--:
A:------------------------------------------:
E:------------------------------------------:
:
:
:
e:--------------------------------:
B:--------------------------------:
G:--------------------------------:
D:--------------------------------:
A:---------------------1----3--1--:
E:--3---1--3--3--3--3----3--------:
        pm========       =

e:-------------------------------------------------------------:
B:-------------------------------------------------------------:
G:-------------------------------------------------------------:
D:-------------------------------------------------------------:
A:--6-6-6-6-6-6-6-6-6-6-6-6-6-6-6-6-6-6-6-6-6-6-6-6-6-6-6-6-6--:
E:-------------------------------------------------------------:

e:---------------------------------------------------------------------:
B:---------------------------------------------------------------------:
G:---------------------------------------------------------------------:
D:-------------------------------------------------------------7--X-7--:
A:--5-5-0-3-3-3-3-3-3-3-3-3-3-3-3-3-3-3-3-3-3-3-3-3-3-3-3-3-3--5--X-5--:
E:---------------------------------------------------------------------:

e:----------------------------:-----------------------:
B:----------------------------:-----------------------:
G:----------------------------:-----------------------:
D:-------------------------3--:----------------3------: x3
A:-------------------------1--:----------------1---3--:
E:--3--3-3-3--3-3-3--3-3-3----:--3--3-3-3--3-3-----1--:
    pm==================         pm===========

e:-------------------------------------------------------:
B:-------------------------------------------------------:
G:-------------------------------------------------------:
D:-------------------------------------------------------: x2
A:----------------------------------------------1---3-1--:
E:--1-3-3-3-3--1-3-3-3-3--1-3-3-3-3--1-3-3-3-3----3------:
    pm=====    =======    =======    =======      =

e:-------------------------------------------------------------:
B:-------------------------------------------------------------:
G:-------------------------------------------------------------:
D:-------------------------------------------------------------:
A:--6-6-6-6-6-6-6-6-6-6-6-6-6-6-6-6-6-6-6-6-6-6-6-6-6-6-6-6-6--:
E:-------------------------------------------------------------:

e:---------------------------------------------------------------------:
B:---------------------------------------------------------------------:
G:---------------------------------------------------------------------:
D:-------------------------------------------------------------7--X-7--:
A:--5-5-0-3-3-3-3-3-3-3-3-3-3-3-3-3-3-3-3-3-3-3-3-3-3-3-3-3-3--5--X-5--:
E:---------------------------------------------------------------------:

e:----------------------------:-----------------------:
B:----------------------------:-----------------------:
G:----------------------------:-----------------------:
D:-------------------------3--:----------------3------: x10 and then fades
A:-------------------------1--:----------------1---3--:
E:--3--3-3-3--3-3-3--3-3-3----:--3--3-3-3--3-3-----1--:
    pm==================         pm===========

x =muffed string
pm =palm mute
1 =full bend
1/2 =1/2 bend
~~ =virbato
/ or \ =slide
^ =hammer on or pull off

words and music by dave mustaine
MEGADETH IS:
Dave Mustaine-guitar,vocals
David Ellefson-bass
Jimmy Degrasso-drums
Al Pitrelli-guitar,backing vocals
Comments