Megadeth - Moto Psycho (riff) Chords & Tabs

 

Moto Psycho (riff) Chords & Tabs

Megadeth Chords & Tabs

Version: 1 Type: Chords 0 ratings
1 star 2 stars 3 stars 4 stars 5 stars
comments

Moto Psycho (riff) Chords

#----------------------------------PLEASE NOTE---------------------------------#
#This file is the author's own work and represents their interpretation of the #
#song. You may only use this file for private study, scholarship, or research. #
#------------------------------------------------------------------------------#

MEGADETH :Moto Psycho

Here are the main riffs it's not a hard song
But it's fun to play
This is my first tabbing attempt.


Opening riff played also through the verses

Riff 1:
|----------------------------------------------|
|----------------------------------------------|
|----------------------------------------------|
|----------------------------------------------|
|----------------------------------1----3--1---|
|-1-3333--1-3333--1-3333--1-3333-----3---------|
 (-P.M-) (-P.M-) (-P.M-) (-P.M-)    (-)



Riff 2: One-way ticket bit
|----------------------|----------------------|
|----------------------|----------------------|
|----------------------|----------------------|
|----------------------|----------------------|
|--6666-6666-6666-6666-|-6666-6666-6666-6666\-|
|----------------------|----------------------|
                                            sl
|----------------------|-----------------------|
|----------------------|-----------------------|
|----------------------|-----------------------|
|----------------------|------------------\7\7-|
|--3333-3333-3333-3333-|-3333-3333-3333-33\5\5-|
|----------------------|-----------------------|
                                         sl sl


Chorus
Riff 3:
|-----------------------------------|X4|---------------|
|-----------------------------------|  |---------------|
|-----------------------------------|  |---------3-----|
|-----------------3-----------3-----|  |--5--4---3--3--|
|-----------------1-----------1-3---|  |--5--4---1--3--|
|--3-333-333-333-----3-333-33---1---|  |--3--2------1--|
  (-----P.M-----)   (--P.M---)


Well that's about it there are 2 fills first Al then Dave
I havent figured them out yet so just widdle a little bit.

Andrew tabbed this that's me! Metalrules.

----------------------------------------------------------------------------------------------
[ Tab from: http://www.guitartabs.cc/tabs/m/megadeth/moto_psycho_riff_crd.html ]
#----------------------------------PLEASE NOTE---------------------------------#
#This file is the author's own work and represents their interpretation of the #
#song. You may only use this file for private study, scholarship, or research. #
#------------------------------------------------------------------------------#

Tabbed By Lewis Babb

Distortion Guitar

Megadeth - Moto Psycho - Intro Riff

E|---------------------------------------------------------------------|
B|---------------------------------------------------------------------|
G|---------------------------------------------------------------------|
D|---------------------------------------------------------------------|
A|-3-3-3-3-1-3-3-3-3-1-3-3-3-3-1-3-3-3-3-1-3-1-------------------------|
E|-3-3-3-3---3-3-3-3---3-3-3-3---3-3-3-3-------------------------------|
Repeat 8x

Thats all my amazing guitar mind can be bothered to do right now

it IS correct.

----------------------------------------------------------------------------------------------

#----------------------------------PLEASE NOTE---------------------------------#
#This file is the author's own work and represents their interpretation of the #
#song. You may only use this file for private study, scholarship, or research. #
#------------------------------------------------------------------------------#

Author/Artist: Danny Pardoe
Title: Moto Psycho
Album: The World Needs A Hero
Transcribed by: Danny Pardoe
Email: danpardoe@yahoo.com

Well, here's my first ever tab post, for Megadeth's awesome heavy new single Moto Psycho.
Its only the opening riff as I'm in the middle of doing my exams and was just jamming when I came 
across this.  But hey, better than nothing, and what a cool riff, simple but it works!

Feel free to drop me an email at danpardoe@yahoo.com with any comments, questions, sugestions etc.
Enjoy yourselves, and go buy The World Needs A Hero!

Danny

------------------------------------------------------------------------------
------------------------------------------------------------------------------
------------------------------------------------------------------------------
------------------------------------------------------------------------------
--------------------------------------------------------3---5-3---------------
------0-0-3--5-5---0-0-3--5-5--0-0-3--5-5--0-0-3--5-5-----5-------------------
                                                                              
Comments