Megadeth - Looking Down The Cross Chords & Tabs

 

Looking Down The Cross Chords & Tabs

Megadeth Chords & Tabs

Version: 1 Type: Tab 0 ratings
1 star 2 stars 3 stars 4 stars 5 stars
comments

Looking Down The Cross Tab

   
Megadeth 
Killing is my business (and business is good)
Looking down the cross 

          
     
Gtr I (E A D G B E) - 'Dave Mustaine'
Gtr II (E A D G B E) - 'Chris Poland'
Gtr III (E A D G B E) - 'Fret noise'

 Intro
  Q=120
 4/4
  Gtr I
      T     T     T     T        T     T     T     T
|-7--(7)---(7)---(7)---(7)-|-6--(6)---(6)---(6)---(6)-|
|--------------------------|--------------------------|
|----------|----------|
|--------------------------|--------------------------|
|--------------------------|--------------------------|
|-7--(7)---(7)---(7)---(7)-|-6--(6)---(6)---(6)---(6)-|


      T     T     T     T        T     T     T     T
|-7--(7)---(7)---(7)---(7)-|-6--(6)---(6)---(6)---(6)--|
|--------------------------|---------------------------|
|----------|-----------|
|--------------------------|---------------------------|
|--------------------------|---------------------------|
|-7--(7)---(7)---(7)---(7)-|-6--(6)---(6)---(6)---(6)--|


       T     T     T     T        T     T     T     T
|-10-(10)--(10)--(10)--(10)-|-9--(9)---(9)---(9)---(9)-|
|---------------------------|--------------------------|
|-----------|----------|
|---------------------------|--------------------------|
|---------------------------|--------------------------|
|-10-(10)--(10)--(10)--(10)-|-9--(9)---(9)---(9)---(9)-|


       T     T     T     T        T     T     T     T
|-10-(10)--(10)--(10)--(10)-|-9--(9)---(9)---(9)---(9)-|
|---------------------------|--------------------------|
|-----------|----------|
|---------------------------|--------------------------|
|---------------------------|--------------------------|
|-10-(10)--(10)--(10)--(10)-|-9--(9)---(9)---(9)---(9)-|


      T     T     T     T        T     T     T     T
|-7--(7)---(7)---(7)---(7)-|-6--(6)---(6)---(6)---(6)-|
|--------------------------|--------------------------|
|----------|----------|
|--------------------------|--------------------------|
|--------------------------|--------------------------|
|-7--(7)---(7)---(7)---(7)-|-6--(6)---(6)---(6)---(6)-|
|
| Gtr II
|--------------------------|--------------------------|
|--------------------------|--------------------------|
|--------------------------|--------------------------|
|--------------------------|--------------------------|
|-2------------------------|-1------------------------|
|-----3-----3-----3-----3--|-----3-----3-----3-----3--|


      T     T     T     T        T     T     T      T
|-7--(7)---(7)---(7)---(7)-|-6--(6)---(6)---(6)----(6)-|
|--------------------------|---------------------------|
|----------|-----------|
|--------------------------|---------------------------|
|--------------------------|---------------------------|
|-7--(7)---(7)---(7)---(7)-|-6--(6)---(6)---(6)----(6)-|
|
|--------------------------|---------------------------|
|--------------------------|---------------------------|
|--------------------------|---------------------------|
|--------------------------|---------------------------|
|-2------------------------|-1-------------------------|
|-----3-----3-----3-----3--|-----3-----3-----3--0---3--|


       T     T     T     T        T     T     T     T
|-10-(10)--(10)--(10)--(10)-|-9--(9)---(9)---(9)---(9)-|
|---------------------------|--------------------------|
|-----------|----------|
|---------------------------|--------------------------|
|---------------------------|--------------------------|
|-10-(10)--(10)--(10)--(10)-|-9--(9)---(9)---(9)---(9)-|
|
|---------------------------|--------------------------|
|---------------------------|--------------------------|
|---------------------------|--------------------------|
|---------------------------|--------------------------|
|--5------------------------|-4------------------------|
|------3-----3-----3-----3--|-----3-----3-----3-----3--|


       T     T     T     T        T     T     T     T
|-10-(10)--(10)--(10)--(10)-|-9--(9)---(9)---(9)---(9)-|
|---------------------------|--------------------------|
|-----------|----------|
|---------------------------|--------------------------|
|---------------------------|--------------------------|
|-10-(10)--(10)--(10)--(10)-|-9--(9)---(9)---(9)---(9)-|
|
|---------------------------|--------------------------|
|---------------------------|--------------------------|
|---------------------------|--------------------------|
|---------------------------|--------------------------|
|--5------------------------|-4------------------------|
|------3-----3-----3-----3--|-----3-----3-----3-----3--|


   T        T        T        T        T        T        T        T
|-19-15p12-19-15p12----------19-15p12-19-15p12----------19-15p12----------|
|-------------------19-15p12-------------------19-15p12----------19-15p12-|
|-------------------------------------------------------------------------|
|-------------------------------------------------------------------------|
|-------------------------------------------------------------------------|
|-------------------------------------------------------------------------|
|
|-------------------------------------------------------------------------|
|-------------------------------------------------------------------------|
|-------------------------------------------------------------------------|
|-------------------------------------------------------------------------|
|--2----------------------------------------------------------------------|
|-----------3-----------------3-----------------3-----------------3-------|


   T        T        T        T        T        T        T        T
|-18-15p12-18-15p12----------18-15p12-18-15p12----------18-15p12-----------|
|-------------------19-15p12-------------------19-15p12----------19-15p12--|
|--------------------------------------------------------------------------|
|--------------------------------------------------------------------------|
|--------------------------------------------------------------------------|
|--------------------------------------------------------------------------|
|
|--------------------------------------------------------------------------|
|--------------------------------------------------------------------------|
|--------------------------------------------------------------------------|
|--------------------------------------------------------------------------|
|--1-----------------------------------------------------------------------|
|-----------3-----------------3-----------------3-----------------3--------|


   T        T        T        T        T        T        T        T
|-19-15p12-19-15p12----------19-15p12-19-15p12----------19-15p12----------|
|-------------------19-15p12-------------------19-15p12----------19-15p12-|
|-------------------------------------------------------------------------|
|-------------------------------------------------------------------------|
|-------------------------------------------------------------------------|
|-------------------------------------------------------------------------|
|
|-------------------------------------------------------------------------|
|-------------------------------------------------------------------------|
|-------------------------------------------------------------------------|
|-------------------------------------------------------------------------|
|--2----------------------------------------------------------------------|
|-----------3-----------------3-----------------3-----------------3-------|


   T        T        T        T        T        T        T        T
|-18-15p12-18-15p12----------18-15p12-18-15p12----------18-15p12-----------|
|-------------------19-15p12-------------------19-15p12----------19-15p12--|
|--------------------------------------------------------------------------|
|--------------------------------------------------------------------------|
|--------------------------------------------------------------------------|
|--------------------------------------------------------------------------|
|
|--------------------------------------------------------------------------|
|--------------------------------------------------------------------------|
|--------------------------------------------------------------------------|
|--------------------------------------------------------------------------|
|--1-----------------------------------------------------------------------|
|-----------3-----------------3-----------------3-----------------3--------|


   T        T        T        T        T        T        T        T
|-22-18p15-22-18p15----------22-18p15-22-18p15----------22-18p15----------|
|-------------------22-18p15-------------------22-18p15----------22-18p15-|
|-------------------------------------------------------------------------|
|-------------------------------------------------------------------------|
|-------------------------------------------------------------------------|
|-------------------------------------------------------------------------|
|
|-------------------------------------------------------------------------|
|-------------------------------------------------------------------------|
|-------------------------------------------------------------------------|
|-------------------------------------------------------------------------|
|--5----------------------------------------------------------------------|
|-----------3-----------------3-----------------3-----------------3-------|


   T        T        T        T        T        T        T        T
|-21-18p15-21-18p15----------21-18p15-21-18p15----------21-18p15-----------|
|-------------------22-18p15-------------------22-18p15----------22-18p15--|
|--------------------------------------------------------------------------|
|--------------------------------------------------------------------------|
|--------------------------------------------------------------------------|
|--------------------------------------------------------------------------|
|
|--------------------------------------------------------------------------|
|--------------------------------------------------------------------------|
|--------------------------------------------------------------------------|
|--------------------------------------------------------------------------|
|--4-----------------------------------------------------------------------|
|-----------3-----------------3-----------------3-----------------3--------|


   T        T        T        T        T        T        T        T
|-22-18p15-22-18p15----------22-18p15-22-18p15----------22-18p15----------|
|-------------------22-18p15-------------------22-18p15----------22-18p15-|
|-------------------------------------------------------------------------|
|-------------------------------------------------------------------------|
|-------------------------------------------------------------------------|
|-------------------------------------------------------------------------|
|
|-------------------------------------------------------------------------|
|-------------------------------------------------------------------------|
|-------------------------------------------------------------------------|
|-------------------------------------------------------------------------|
|--5----------------------------------------------------------------------|
|-----------3-----------------3-----------------3-----------------3-------|


   T        T        T        T        T        T        T        T
|-21-18p15-21-18p15----------21-18p15-21-18p15----------21-18p15-----------|
|-------------------22-18p15-------------------22-18p15----------22-18p15--|
|--------------------------------------------------------------------------|
|--------------------------------------------------------------------------|
|--------------------------------------------------------------------------|
|--------------------------------------------------------------------------|
|
|--------------------------------------------------------------------------|
|--------------------------------------------------------------------------|
|--------------------------------------------------------------------------|
|--------------------------------------------------------------------------|
|--4-----------------------------------------------------------------------|
|-----------3-----------------3-----------------3-----------------3--------|


  B5
   T        T        T        T        T        T        T        T
|-19-15p12-19-15p12----------19-15p12-19-15p12----------19-15p12----------|
|-------------------19-15p12-------------------19-15p12----------19-15p12-|
|-------------------------------------------------------------------------|
|-------------------------------------------------------------------------|
|-------------------------------------------------------------------------|
|-------------------------------------------------------------------------|
|
|-------------------------------------------------------------------------|
|-------------------------------------------------------------------------|
|-------------------------------------------------------------------------|
|-------------------------------------------------------------------------|
|--9----------------------------------------------------------------------|
|--7----------------------------------------------------------------------|


  Bb5
   T         T        T        T        T        T        T        T
|-18--15p12-18-15p12----------18-15p12-18-15p12----------18-15p12-----------|
|--------------------19-15p12-------------------19-15p12----------19-15p12--|
|---------------------------------------------------------------------------|
|---------------------------------------------------------------------------|
|---------------------------------------------------------------------------|
|---------------------------------------------------------------------------|
|
|---------------------------------------------------------------------------|
|---------------------------------------------------------------------------|
|---------------------------------------------------------------------------|
|---------------------------------------------------------------------------|
|--8\-----------------------------------------------------------------------|
|--6\-----------------------------------------------------------------------|


  B5
   T        T        T        T        T        T        T        T
|-19-15p12-19-15p12----------19-15p12-19-15p12----------19-15p12----------|
|-------------------19-15p12-------------------19-15p12----------19-15p12-|
|-------------------------------------------------------------------------|
|-------------------------------------------------------------------------|
|-------------------------------------------------------------------------|
|-------------------------------------------------------------------------|
|
|-------------------------------------------------------------------------|
|-------------------------------------------------------------------------|
|-------------------------------------------------------------------------|
|-------------------------------------------------------------------------|
|--9----------------------------------------------------------------------|
|--7----------------------------------------------------------------------|


  Bb5
   T         T        T        T        T        T        T        T
|-18--15p12-18-15p12----------18-15p12-18-15p12----------18-15p12-----------|
|--------------------19-15p12-------------------19-15p12----------19-15p12--|
|---------------------------------------------------------------------------|
|---------------------------------------------------------------------------|
|---------------------------------------------------------------------------|
|---------------------------------------------------------------------------|
|
|---------------------------------------------------------------------------|
|---------------------------------------------------------------------------|
|---------------------------------------------------------------------------|
|---------------------------------------------------------------------------|
|--8\-----------------------------------------------------------------------|
|--6\-----------------------------------------------------------------------|


  D5
   T        T        T        T        T        T        T        T
|-22-18p15-22-18p15----------22-18p15-22-18p15----------22-18p15----------|
|-------------------22-18p15-------------------22-18p15----------22-18p15-|
|-------------------------------------------------------------------------|
|-------------------------------------------------------------------------|
|-------------------------------------------------------------------------|
|-------------------------------------------------------------------------|
|
|-------------------------------------------------------------------------|
|-------------------------------------------------------------------------|
|-------------------------------------------------------------------------|
|-------------------------------------------------------------------------|
|-12----------------------------------------------------------------------|
|-10----------------------------------------------------------------------|


  C#5
   T         T        T        T        T        T        T        T
|-21--18p15-21-18p15----------21-18p15-21-18p15----------21-18p15-----------|
|--------------------22-18p15-------------------22-18p15----------22-18p15--|
|---------------------------------------------------------------------------|
|---------------------------------------------------------------------------|
|---------------------------------------------------------------------------|
|---------------------------------------------------------------------------|
|
|---------------------------------------------------------------------------|
|---------------------------------------------------------------------------|
|---------------------------------------------------------------------------|
|---------------------------------------------------------------------------|
|-11\-----------------------------------------------------------------------|
|--9\-----------------------------------------------------------------------|


  D5
   T        T        T        T        T        T        T        T
|-22-18p15-22-18p15----------22-18p15-22-18p15----------22-18p15----------|
|-------------------22-18p15-------------------22-18p15----------22-18p15-|
|-------------------------------------------------------------------------|
|-------------------------------------------------------------------------|
|-------------------------------------------------------------------------|
|-------------------------------------------------------------------------|
|
|-------------------------------------------------------------------------|
|-------------------------------------------------------------------------|
|-------------------------------------------------------------------------|
|-------------------------------------------------------------------------|
|-12----------------------------------------------------------------------|
|-10----------------------------------------------------------------------|


  C#5
   T         T        T        T        T        T        T        T
|-21--18p15-21-18p15----------21-18p15-21-18p15----------21-18p15-----------|
|--------------------22-18p15-------------------22-18p15----------22-18p15--|
|---------------------------------------------------------------------------|
|---------------------------------------------------------------------------|
|---------------------------------------------------------------------------|
|---------------------------------------------------------------------------|
|
|---------------------------------------------------------------------------|
|---------------------------------------------------------------------------|
|---------------------------------------------------------------------------|
|---------------------------------------------------------------------------|
|-11\-----------------------------------------------------------------------|
|--9\-----------------------------------------------------------------------|


  B5         Bb5          B5      Bb5
  Gtrs I, II
|----------|------------|-----------|------|
|----------|------------|-----------|------|
|----------|------------|-----------|------|
|----------|------------|-----------|------|
|-9--------|-8-8\-------|-9-------8-|-8----|
|-7--------|-6-6\-------|-7-------6-|-6----|


  D5          C#5            D5         E5 D5   C#5
|-----------|--------------|------------------|-------|
|-----------|--------------|------------------|-------|
|-----------|--------------|------------------|-------|
|-----------|--------------|------------------|-------|
|-12--------|-11-11\-------|-12----(12)S14-12-|-11----|
|-10--------|--9--9\-------|-10----(10)S12-10-|--9----|


              Pre-Verse
  B5      G5   A5      B5   C5      C#5    D5        E5   F5     G5
  Gtr I
                 PM--|        PM--|            PM--|         PM|    PM|
|------------|---------------------------|------------------------------|
|------------|---------------------------|------------------------------|
|------------|---------4----5-------6----|--7--------9----10-----12-----|
|------------|-2-------4-x--5-------6-x--|--7--------9-x--10-----12-----|
|-9----9--5--|-0-0-0-0-2-x--3-0-0-0-4-x--|--5--0-0-0-7-x---8-0-0-10-0-0-|
|-7----7--3--|---------------------------|------------------------------|
|
| Gtr II
|------------|---------------------------|------------------------------|
|------------|---------------------------|------------------------------|
|------------|---------------------------|------------------------------|
|------------|-2-------------------------|-(2)--------------------------|
|-9----9--5--|-0-------------------------|-(0)--------------------------|
|-7----7--3--|---------------------------|------------------------------|


  A5        B5   C5      C#5    D5        E5   F5     N.C.
      PM--|        PM--|            PM--|         PM|
|-----------------------------|-------------------------------|
|-----------------------------|-------------------------------|
|-14\-------4----5-------6----|--7--------9----10-----7-5-4-5-|
|-14\-------4-x--5-------6-x--|--7--------9-x--10-------------|
|-12\-0-0-0-2-x--3-0-0-0-4-x--|--5--0-0-0-7-x---8-0-0---------|
|-----------------------------|-------------------------------|
|
|-----------------------------|-------------------------------|
|-----------------------------|-------------------------------|
|-----------------------------|-----------------------7-5-4-5-|
|--2--------------------------|-(2)---------------------------|
|--0--------------------------|-(0)---------------------------|
|-----------------------------|-------------------------------|


   Verse
    A5                   Cm                      N.C.
    Gtrs I, II
      PM|   PM|   PM|            PM|   PM|   PM|
||-------------------------|-----------------------------|
||o-5-----5-----5-----5--4-|-(4)-----4-----4-------------|
||--2-----2-----2-----2--5-|-(5)-----5-----5-----7-5-4-5-|
||-------------------------|-----------------------------|
||o---0-0---0-0---0-0------|-----0-0---0-0---0-0---------|
||-------------------------|-----------------------------|


  A5                   C°                      N.C.
    PM|   PM|   PM|            PM|   PM|   PM|
|------------------------|------------------------------||
|-5-----5-----5-----5--7-|-(7)-----7-----7-------------o||
|-2-----2-----2-----2--5-|-(5)-----5-----5-----7-4-5-4--||
|------------------------|------------------------------||
|---0-0---0-0---0-0------|-----0-0---0-0---0-0---------o||
|------------------------|------------------------------||


  A5      B5   C5      C#5    D5      E5   F5     G5
    PM--|        PM--|          PM--|         PM|    PM|
|---------------------------|----------------------------|
|---------------------------|----------------------------|
|---------4----5-------6----|-7-------9----10-----12-----|
|-2-------4-x--5-------6-x--|-7-------9-x--10-----12-----|
|-0-0-0-0-2-x--3-0-0-0-4-x--|-5-0-0-0-7-x---8-0-0-10-0-0-|
|---------------------------|----------------------------|


  A5        B5   C5      C#5    D5      E5   F5     N.C.
      PM--|        PM--|          PM--|         PM|
|-----------------------------|-----------------------------|
|-----------------------------|-----------------------------|
|-14\-------4----5-------6----|-7-------9----10-----7-5-4-5-|
|-14\-------4-x--5-------6-x--|-7-------9-x--10-------------|
|-12\-0-0-0-2-x--3-0-0-0-4-x--|-5-0-0-0-7-x---8-0-0---------|
|-----------------------------|-----------------------------|


 Bridge
  Gtr II
  ~    ~                                    ~
|---------------------|-----------------------|
|---------------------|---------------------5-|
|-2--4-5--x-x-5-4-2---|-------2-/4--x-x-x-x---|
|-------------------5-|-x-x-x---/6--x-x-x-x---|
|---------------------|-----------------------|
|---------------------|-----------------------|


          ~                        ~
|------------------------|------------------------|
|------------------------|------------------------|
|-x-2-2-4-5--5-7-7-5-4-5-|-------2-1--x-x-5-2-4-2-|
|------------------------|-x-x-x------------------|
|------------------------|------------------------|
|------------------------|------------------------|


          ~
|------------------------|---------------------------|
|------------------------|----------------------4s=5-|
|-x-x-x-4-5--x-x-7-5-4-5-|-------2-/4--x-x-x-x-------|
|------------------------|-x-x-x---/6--x-x-x-x-------|
|------------------------|---------------------------|
|------------------------|---------------------------|
|
| Gtr I
|                          ~
|------------------------|---------------------12h13-|
|----------------5-3-----|---------------------------|
|--------------------5-4-|-2-------------------------|
|------------------------|---------------------------|
|------------------------|---------------------------|
|------------------------|---------------------------|


           ~
|----------------------------|
|----------------------------|
|--x-2-2-4-5--5-7--7--5-4--5-|
|----------------------------|
|----------------------------|
|----------------------------|
|
|-12-------------------------|
|-----------------12p10p9h10h|
|----------------------------|
|----------------------------|
|----------------------------|
|----------------------------|


                ~
|--------------------------------------------------------------|
|--------------------------------------------------------------|
|-------------2-1----------------x-----x----5-----2----4-----2-|
|--x-x--x------------------------------------------------------|
|--------------------------------------------------------------|
|--------------------------------------------------------------|
|
|-----------------------10----10h==12-10h12h==13-12h13h==15-13-|
|-12---10h12-13---12h13----13----------------------------------|
|--------------------------------------------------------------|
|--------------------------------------------------------------|
|--------------------------------------------------------------|
|--------------------------------------------------------------|

[ Tab from: http://www.guitartabs.cc/tabs/m/megadeth/looking_down_the_cross_tab.html ]
 Solo
  A5                                               Cm
        PM|       PM|             PM------|
|---------------------------------------------------------|
|--5---------5---------5---------------------5------4-----|
|--2---------2---------2---------------------2------5-----|
|---------------------------------------------------------|
|-------0-0-------0-0-------------0-------0---------------|
|---------------------------------------------------------|
|
|                                                   ~~~~~~~
|-15b17-----15b17-----15b17-15b17---15b17---15b17--15b17==|
|---------------------------------------------------------|
|---------------------------------------------------------|
|---------------------------------------------------------|
|---------------------------------------------------------|
|---------------------------------------------------------|


       PM|   PM|    PM|
|---------------------------------|
|--(4)-----4------4---------------|
|--(5)-----5------5-----7-5--4--5-|
|---------------------------------|
|------0-0---0-0----0-0-----------|
|---------------------------------|
|
|~~~~~~
|-(15)-----------15r========15-12-|
|---------------------------------|
|---------------------------------|
|---------------------------------|
|---------------------------------|
|---------------------------------|


  A5                         C°
      PM|     PM|     PM|           PM|    PM|   PM|
|------------------------------|------------------------------|
|--5-------5-------5------5--7-|-(7)----7------7--------------|
|--2-------2-------2------2--5-|-(5)----5------5------7-4-5-4-|
|------------------------------|------------------------------|
|-----0-0-----0-0-----0-0------|----0-0----0-0---0-0----------|
|------------------------------|------------------------------|
|
|  TP TP   TP TP   TP TP  TP TP   TPTP  TP TP  TPTP   TP  TP
|------------------------------|------------------------------|
|------------------------------|------------------------------|
|-20s18s==16s14s==12s10s==8s=6-|------------------------------|
|------------------------------|-10s8s==6---------------------|
|------------------------------|----------10s==8s6------------|
|------------------------------|---------------------10s==8---|


  A5                   Cm
    PM|   PM|   PM|           PM|   PM|   PM--------|
|------------------------|----------------------------|
|-5-----5-----5-----5--4-|-(4)----4-----4-------------|
|-2-----2-----2-----2--5-|-(5)----5-----5-------------|
|------------------------|----------------------------|
|---0-0---0-0---0-0------|----0-0---0-0---0-0-0-0-0-0-|
|------------------------|----------------------------|
|
| Gtr III
| TPTP  TPTP  TPTP  TP TP   TPTP  TPTP  TPTP  TP  TP
|------------------------|----------------------------|
|------------------------|----------------------------|
|------------------------|----------------------------|
|------------------------|----------------------------|
|------------------------|----------------------------|
|-xSxS==xSxS==xSxS==xS=xS|==xSxS==xSxS==xSxS==xS==x---|


 Verse
  Q=128
  A5      B5   C5      C#5    D5      E5   F5     G5
  Gtrs I, II
    PM--|        PM--|          PM--|         PM|    PM|
|---------------------------|----------------------------|
|---------------------------|----------------------------|
|---------4----5-------6----|-7-------9----10-----12-----|
|-2-------4-x--5-------6-x--|-7-------9-x--10-----12-----|
|-0-0-0-0-2-x--3-0-0-0-4-x--|-5-0-0-0-7-x---8-0-0-10-0-0-|
|---------------------------|----------------------------|


    A5        B5   C5      C#5    D5      E5   F5     G5
        PM--|        PM--|          PM--|         PM|    PM|
                                                              3x
||------------------------------|-----------------------------||
||o-----------------------------|----------------------------o||
||--14\-------4----5-------6----|-7-------9----10-----12------||
||--14\-------4-x--5-------6-x--|-7-------9-x--10-----12------||
||o-12\-0-0-0-2-x--3-0-0-0-4-x--|-5-0-0-0-7-x---8-0-0-10-0-0-o||
||------------------------------|-----------------------------||


 Breakdown
  A5                                              N.C.
                                                  Gtr III
                                                  TP TP
|-----------|-------------|-------------|---------------|
|-----------|-------------|-------------|---------------|
|-14--------|-(14)--------|-(14)--------|-(14)----------|
|-14--------|-(14)--------|-(14)--------|-(14)----------|
|-12--------|-(12)--------|-(12)--------|-(12)----xs=x--|
|-----------|-------------|-------------|---------------|


 Bridge
            C5         A5          C5   D5
            Gtr I
|---------|----------|-----------|-----------|
|---------|----------|-----------|-----------|
|---------|----------|-----------|-----------|
|---------|-5--------|-----------|-5----7----|
|---------|-3--------|-7\--------|-3----5----|
|---------|----------|-5\--------|-----------|


  A5            N.C.
                PM----------------------------|
                                                 4x
|-----------||-----------------------------------||
|-----------||o---------------------------------o||
|-----------||-----------------------------------||
|-----------||--2---------------2----------------||
|-7\--------||o---0-0-3-0-0-2-0---0-0-3-0-0-2-0-o||
|-5\--------||-----------------------------------||


  C5         A5          C5   D5     A5       N.C.
                                              Gtrs I, II
|----------|-----------|-----------|------------|
|----------|-----------|-----------|------------|
|----------|-----------|-----------|------------|
|-5--------|-----------|-5----7----|------------|
|-3--------|-7\--------|-3----5----|-7\-------0-|
|----------|-5\--------|-----------|-5\---------|


|-----------------------------------||-------------------------------------||
|-----------------------------------||o-----------------------------------o||
|-----------------------------------||-------------------------------------||
|-----7p6p5-5p4---------------------||------7p6p5-5p4----------------------||
|-(0)-----------5-7p5---5---------0-||o-(0)-----------5-7p5---5---------0-o||
|---------------------8---8-8-7-0---||----------------------8---8-8-7-0----||


|---------------------------------|-----------------------------------|
|---------------------------------|-----------------------------------|
|---------------------------------|-----------------------------------|
|-----7p6p5-5p4-----7p6p5-5p4-----|-----7p6p5-5p4---------------------|
|-(0)-----------5-0-----------5-0-|-(0)-----------5-7p5---5---------0-|
|---------------------------------|---------------------8---8-8-7-0---|


                                                                    A5
|---------------------------------|-----------------------------------|
|---------------------------------|-----------------------------------|
|---------------------------------|-----------------------------------|
|-----7p6p5-5p4-----7p6p5-5p4-----|-----7p6p5-5p4-------------------2-|
|-(0)-----------5-0-----------5-0-|-(0)-----------5-7p5---5---------0-|
|---------------------------------|---------------------8---8-8-7-0---|


 Verse
                  B5C5                  C#D5
|---------------------|---------------------|
|---------------------|---------------------|
|-----------------4-5-|-(5)----(5)--(5)-6-7-|
|-(2)----(2)--(2)-4-5-|-(5)----(5)--(5)-6-7-|
|-(0)----(0)--(0)-2-3-|-(3)----(3)--(3)-4-5-|
|---------------------|---------------------|


                  E5F5               G5        A5
|----------------------|--------------------------|
|----------------------|--------------------------|
|-(7)----(7)--(7)-9-10-|-(10)---(10)-12---(12)-14-|
|-(7)----(7)--(7)-9-10-|-(10)---(10)-12---(12)-14-|
|-(5)----(5)--(5)-7--8-|--(8)----(8)-10---(10)-12-|
|----------------------|--------------------------|


                  B5C5                  C#D5
|---------------------|---------------------|
|---------------------|---------------------|
|-(14)----(14)\---4-5-|-(5)----(5)--(5)-6-7-|
|-(14)----(14)\---4-5-|-(5)----(5)--(5)-6-7-|
|-(12)----(12)\---2-3-|-(3)----(3)--(3)-4-5-|
|---------------------|---------------------|
|
|---------------------|---------------------|
|---------------------|---------------------|
|---------------------|---------------------|
|---------------------|---------------------|
|---------------------|---------------------|
|---------------------|---------------------|


                  E5F5               G5          A5
                                                 Gtr II
|----------------------|----------------------------|
|----------------------|----------------------------|
|-(7)----(7)--(7)-9-10-|-(10)---(10)-12----(12)--14-|
|-(7)----(7)--(7)-9-10-|-(10)---(10)-12----(12)--14-|
|-(5)----(5)--(5)-7--8-|--(8)----(8)-10----(10)--12-|
|----------------------|----------------------------|
|
|                                                Gtr I
|                                                 TP
|----------------------|----------------------------|
|----------------------|----------------------------|
|----------------------|--------------------------2-|
|----------------------|----------------------------|
|----------------------|----------------------------|
|----------------------|----------------------------|


                  B5C5                  C#D5
|---------------------|---------------------|
|---------------------|---------------------|
|-(14)----(14)\---4-5-|-(5)----(5)--(5)-6-7-|
|-(14)----(14)\---4-5-|-(5)----(5)--(5)-6-7-|
|-(12)----(12)\---2-3-|-(3)----(3)--(3)-4-5-|
|---------------------|---------------------|
|
|   TP                   TP
|---------------------|---------------------|
|---------------------|---------------------|
|--(2)----------------|-(2)-----------------|
|---------------------|---------------------|
|---------------------|---------------------|
|---------------------|---------------------|


                  E5F5               G5        A5
|----------------------|--------------------------|
|----------------------|--------------------------|
|-(7)----(7)--(7)-9-10-|-(10)---(10)-12---(12)-14-|
|-(7)----(7)--(7)-9-10-|-(10)---(10)-12---(12)-14-|
|-(5)----(5)--(5)-7--8-|--(8)----(8)-10---(10)-12-|
|----------------------|--------------------------|
|
|  TP                      TP
|----------------------|--------------------------|
|----------------------|--------------------------|
|-(2)------------------|--(2)---------------------|
|----------------------|--------------------------|
|----------------------|--------------------------|
|----------------------|--------------------------|


                  B5C5                  C#D5
|---------------------|---------------------|
|---------------------|---------------------|
|-(14)----(14)\---4-5-|-(5)----(5)--(5)-6-7-|
|-(14)----(14)\---4-5-|-(5)----(5)--(5)-6-7-|
|-(12)----(12)\---2-3-|-(3)----(3)--(3)-4-5-|
|---------------------|---------------------|
|
|   TP                   TP
|---------------------|---------------------|
|---------------------|---------------------|
|--(2)----------------|-(2)-----------------|
|---------------------|---------------------|
|---------------------|---------------------|
|---------------------|---------------------|


                  E5F5               G5
|----------------------|----------------------------|
|----------------------|----------------------------|
|-(7)----(7)--(7)-9-10-|-(10)---(10)-12---(12)-(12)-|
|-(7)----(7)--(7)-9-10-|-(10)---(10)-12---(12)-(12)-|
|-(5)----(5)--(5)-7--8-|--(8)----(8)-10---(10)-(10)-|
|----------------------|----------------------------|
|
|  TP                      TP
|----------------------|----------------------------|
|----------------------|----------------------------|
|-(2)------------------|--(2)-----------------------|
|----------------------|----------------------------|
|----------------------|----------------------------|
|----------------------|----------------------------|


 Solo
  A5       G#5        G5       D5          A5                                  G#5
      PM       PM         PM                                  PM                                  PM
|-------------------|--------------------|-------------------------------------------------------------------------|
|-------------------|--------------------|-------------------------------------------------------------------------|
|-------------------|--------------------|-------------------------------------------------------------------------|
|-14----14-13----13-|-12----12-----------|-14-------------------------14-------13-------------------------13-------|
|-12----12-11----11-|-10----10-12--------|-12-------------------------12-------11-------------------------11-------|
|-----0--------0----|-----0----10--11-12-|--------------------0-----------------------------------0----------------|
|
|-------------------|--------------------|----------------------------------------------------------------15-17-19-|
|-------------------|--------------------|-------------------------------------------------------15-17-19----------|
|-------------------|--------------------|----------------------------------------------14-16-18-------------------|
|-------------------|--------------------|-------------------12-14-16----------14-16-18----------------------------|
|-------------------|--------------------|----------12-14-15----------12-14-15-------------------------------------|
|-------------------|--------------------|-12-14-15----------------------------------------------------------------|


  G5                          D5
          PM
|----------------------------------------------|
|----------------------------------------------|
|----------------------------------------------|
|-12-----------------12------------------------|
|-10-----------------10-------12---------------|
|---------0-------------------10-----11----12--|
|
|-22b24--22b24-22b24----22b24-22b24--22b24-----|
|----------------------------------------------|
|----------------------------------------------|
|----------------------------------------------|
|----------------------------------------------|
|----------------------------------------------|


  A5                                  G#5
                     PM                                   PM
|---------------------------------------------------------------------------|
|---------------------------------------------------------------------------|
|---------------------------------------------------------------------------|
|-14-------------------------14-------13--------------------------13--------|
|-12-------------------------12-------11--------------------------11--------|
|--------------------0------------------------------------0-----------------|
|
|-20h22-20h22-20p19---------------------------------------------------------|
|-------------------20h22-20h22-20p19-13h17-13h16-13------------------------|
|----------------------------------------------------h16-11h15-11h14-11-----|
|-----------------------------------------------------------------------h15-|
|---------------------------------------------------------------------------|
|---------------------------------------------------------------------------|


  G5                                 D5
                     PM
|-----------------------------------------------------------------------|
|-----------------------------------------------------------------------|
|-----------------------------------------------------------------------|
|-12------------------------12------------------------------------------|
|-10------------------------10-------12---------------------------------|
|--------------------0---------------10--------------11-------12--------|
|
|-----------------------------------------------------------------------|
|-----------------------------------------------------------------------|
|-----------------------------------------------------------------------|
|-10h14-10h13-10-------------------------------------------------10-----|
|----------------h14-9h13-9h12-9---------------------12p10-12-14----14--|
|--------------------------------h13--8h12-8h11-8h10--------------------|


  A5                                  G#5
                     PM                                  PM
|-------------------------------------------------------------------------|
|-------------------------------------------------------------------------|
|-------------------------------------------------------------------------|
|-14-------------------------14-------13-------------------------13-------|
|-12-------------------------12-------11-------------------------11-------|
|--------------------0-----------------------------------0----------------|
|
|-------------------------------------------------------------------------|
|-------------------------------------------------------------------------|
|----------10h12-14-12p10-12p10-------------------------12h14-12----------|
|-10h12-14----------------------14p12-10-------12h14-16----------16p14-12-|
|----------------------------------------14p12----------------------------|
|-------------------------------------------------------------------------|


  G5                                  D5
                     PM
|-----------------------------------------------------------------|
|-----------------------------------------------------------------|
|-----------------------------------------------------------------|
|-12-------------------------12-----------------------------------|
|-10-------------------------10-------12--------------------------|
|--------------------0----------------10----------11-------12-----|
|
|-------------------------------------------------15-17-18-19s22--|
|----------------------------------------15h17-19-----------------|
|----------16h17-16-17h19-17-16-16h17-19--------------------------|
|-----------------------------------------------------------------|
|-16p12-14--------------------------------------------------------|
|-----------------------------------------------------------------|


  A5                               G#5
                  PM                                  PM
|----------------------------------------------------------------------|
|----------------------------------------------------------------------|
|----------------------------------------------------------------------|
|----------------------------------------------------------------------|
|--7-----------------------7--------6--------------------------6-------|
|--5--------------0--------5--------4-----------------0--------4-------|
|
|-22b24-22p20-17-22-20-17----------------17-17-------------------------|
|-------------------------15-17----17h20-------20-17-20-19-20----------|
|-------------------------------14----------------------------17-19-19-|
|----------------------------------------------------------------------|
|----------------------------------------------------------------------|
|----------------------------------------------------------------------|


  G5                                    D5                Eb5      E5
                     PM
|----------------------------------------------------------------------------|
|----------------------------------------------------------------------------|
|----------------------------------------------------------------------------|
|----------------------------------------------------------------------------|
|--5----------------------------5--------5-----------------6--------7--------|
|--3-----------------0----------3--------5-----------------6--------7--------|
|
|----------------------------------------------------------------------------|
|-17-19-17-19-20-19-17-19----------------------------------------------------|
|-------------------------19b20---17-19-19b20-17-19-17----------17h19-17-----|
|------------------------------------------------------19-17h19----------19--|
|----------------------------------------------------------------------------|
|----------------------------------------------------------------------------|


  A5                               G#5
                    PM                                PM
|----------------------------------------------------------------------|
|----------------------------------------------------------------------|
|----------------------------------------------------------------------|
|----------------------------------------------------------------------|
|--7-------------------------7------6--------------------------6-------|
|--5----------------0--------5------4-----------------0--------4-------|
|
|----------------------------------------------------------------------|
|----------------------------------------------------------------------|
|----------------------------------12h14-12----13h14-13-12-13p12-13-14-|
|---------------13p12-10-12-13/-14----------14-------------------------|
|-12-15-12-15-x--------------------------------------------------------|
|----------------------------------------------------------------------|


  G5                                  D5                Eb5      E5
                     PM
|-------------------------------------------------------------------------|
|-------------------------------------------------------------------------|
|-------------------------------------------------------------------------|
|-------------------------------------------------------------------------|
|--5--------------------------5--------5-----------------6--------7-------|
|--3-----------------0--------3--------5-----------------6--------7-------|
|
|----------15b16-13----------13-13----13----------------------------13-15-|
|-13----13-15----13----13h15-15-13-15-13-15-15-15-13-15-15-13-15-17-------|
|----14-------------14----------------------------------------------------|
|-------------------------------------------------------------------------|
|-------------------------------------------------------------------------|
|-------------------------------------------------------------------------|


  A5                      G#5
               PM                            PM
|-------------------------------------------------------------|
|-------------------------------------------------------------|
|-------------------------------------------------------------|
|-------------------------------------------------------------|
|--7-----------------7-----6--------------------------6-------|
|--5-----------0-----5-----4-----------------0--------4-------|
|
|-17----17----17----17----17----17-17----17-17----17-17----17-|
|-20b22-20b22-20b22-20b22-20b22----20b22----20b22----20b22----|
|-------------------------------------------------------------|
|-------------------------------------------------------------|
|-------------------------------------------------------------|
|-------------------------------------------------------------|


  G5                         D5                Eb5      E5
            PM
|-----------------------------------------------------------------|
|-----------------------------------------------------------------|
|-----------------------------------------------------------------|
|-----------------------------------------------------------------|
|--5-----------------5--------5-----------------6--------7--------|
|--3--------0--------3--------5-----------------6--------7--------|
|
|-20b24r20-17-17-17-------17-17-------17-------------------15-----|
|-------------------20b22-------20b22----20p17----------------17--|
|----------------------------------------------19p17----17--------|
|----------------------------------------------------19-----------|
|-----------------------------------------------------------------|
|-----------------------------------------------------------------|


  A5                                  G#5
                     PM                                  PM
|-------------------------------------------------------------------------|
|-------------------------------------------------------------------------|
|-------------------------------------------------------------------------|
|-------------------------------------------------------------------------|
|--7--------------------------7--------6--------------------------6-------|
|--5-----------------0--------5--------4-----------------0--------4-------|
|
|-------------------------------------------------------------------------|
|-18-17-16-15-14-15-16-17-16-14h15-14----------------14-15-16-17-16-15h17-|
|-------------------------------------16-15-14-13-14----------------------|
|-------------------------------------------------------------------------|
|-------------------------------------------------------------------------|
|-------------------------------------------------------------------------|


  G5                                  D5                Eb5      E5
                     PM
|---------------------------------------------------------------------------|
|---------------------------------------------------------------------------|
|---------------------------------------------------------------------------|
|---------------------------------------------------------------------------|
|--5--------------------------5--------5-----------------6--------7---------|
|--3-----------------0--------3--------5-----------------6--------7---------|
|
|----------17-------15-------17----------------17-------20p17---------------|
|-20-17-20----20-17----17-15----20-17----17-20----20-17-------20p17---------|
|-------------------------------------20----------------------------19p17\--|
|---------------------------------------------------------------------------|
|---------------------------------------------------------------------------|
|---------------------------------------------------------------------------|


   Chorus
                    1.,2.,3.          4.
    A5     G#5      G5     D5 EbE5    G5     D5 C5B5
       PM     PM       PM                PM
                                   4x
||----------------|----------------||---------------|
||o---------------|---------------o||---------------|
||----------------|----------------||---------------|
||----------------|----------------||--------7--5-4-|
||o-7----7-6----6-|-5----5-5--6-7-o||-5----5-5--3-2-|
||--5--0-5-4--0-4-|-3--0-3-5--6-7--||-3--0-3--------|


 Outro
  A5      B5   C5      C#5    A5      E5   F5     G5
    PM--|        PM--|          PM--|         PM|    PM|
|---------------------------|----------------------------|
|---------------------------|----------------------------|
|---------4----5-------6----|---------9----10-----12-----|
|-2-------4-x--5-------6-x--|-2-------9-x--10-----12-----|
|-0-0-0-0-2-x--3-0-0-0-4-x--|-0-0-0-0-7-x---8-0-0-10-0-0-|
|---------------------------|----------------------------|


  A5        B5   C5      C#5    A5      E5   F5     N.C.
      PM--|        PM--|          PM--|         PM|
|-----------------------------|-----------------------------|
|-----------------------------|-----------------------------|
|-14\-------4----5-------6----|---------9----10-----7-5-4---|
|-14\-------4-x--5-------6-x--|-2-------9-x--10-----------5-|
|-12\-0-0-0-2-x--3-0-0-0-4-x--|-0-0-0-0-7-x---8-0-0---------|
|-----------------------------|-----------------------------|


  A5  F5
|--------------|------------|------------|--------*|
|--------------|------------|------------|--------*|
|--------------|------------|------------|--------*|
|-2-2----------|------------|------------|--------*|
|-0-0-3----(3)-|-(3)--------|-(3)--------|-(3)----*|
|-----1----(1)-|-(1)--------|-(1)--------|-(1)----*|



			 


 Bookmark this page right now! (Ctrl+D)
 
Comments