Megadeth - Liar Chords & Tabs

 

Liar Chords & Tabs

Megadeth Chords & Tabs

Version: 1 Type: Bass Tab 0 ratings
1 star 2 stars 3 stars 4 stars 5 stars
comments

Liar Bass Tab

Liar - Megadeth
Jon Craven (nojnevarc@hotmail.com; www.geocities.com/larsramirez2001)
(enters @ 0:20)

Intro:
G:------------|
D:------------|
A:-1--1--1--1-|
E:------------|
B:------------|

Riff 1:
G:-----------------|---------------|-----------------|-------------|-----------------|-------------|
D:-----------------|---------------|-----------------|-------------|-----------------|-------------|
A:-0-0-0-0-0-0-0-0-|-1--0--1-0---0-|-0-0-0-0-0-0-0-0-|-1-----1-0**-|-0-0-0-0-0-0-0-0-|-1--0--1---0-|
E:-----------------|-----------3---|-----------------|----3--------|-----------------|---------3---|
B:-----------------|---------------|-----------------|-------------|-----------------|-------------|

G:------------|------------|
D:-2--1--0----|------------|
A:----------4-|-3--2--1--1-|
E:------------|------------|
B:------------|------------|

Riff 2: (x7)
G:-----------------|-------------|-----------------|------------|
D:-----------------|-------------|-----------------|------------|
A:-0-0-0-0-0-0-0-0-|-3--2--1-----|-0-0-0-0-0-0-0-0-|-3--2--1***-|
E:-----------------|---------3-3-|-----------------|------------|
B:-----------------|-------------|-----------------|------------|

Fill:
G:-----------------|------------|------------|
D:-----------------|-2--1--0----|------------|
A:-0-0-0-0-0-0-0-0-|----------4-|-3--2--1--1-|
E:-----------------|------------|------------|
B:-----------------|------------|------------|
[ Tab from: http://www.guitartabs.cc/tabs/m/megadeth/liar_btab.html ]
Riff 3:
G:-----------------|---------------|-----------------|-------------|-----------------|--------------|
D:-----------------|---------------|-----------------|-------------|-----------------|--------------|
A:-0-0-0-0-0-0-0-0-|-1--0--1-0---0-|-0-0-0-0-0-0-0-0-|-1-----1-0**-|-0-0-0-0-0-0-0-0-|-1--1--1--1-1-|
E:-----------------|-----------3---|-----------------|----3--------|-----------------|--------------|
B:-----------------|---------------|-----------------|-------------|-----------------|--------------|

Riff 2 (x4)

Riff 4: (x3)(check)
G:-----------------|--------------|-----------------|-------------------|
D:-----------------|--------------|-----------------|-------------------|
A:---0-0-0-0-0-0-0-|-1---1---0***-|---0-0-0-0-0-0-0-|-5-----5-4h5p4h5p4-|
E:-3---------------|---3---3------|-3---------------|----6--------------|
B:-----------------|--------------|-----------------|-------------------|

Fill 2:
G:-----------------|------------|------------|
D:-----------------|-2--1--0----|------------|
A:---0-0-0-0-0-0-0-|----------4-|-3--2--1--1-|
E:-3---------------|------------|------------|
B:-----------------|------------|------------|

Riff 5: (x4)(1:58)
G:-----------------|----------------|----------------|
D:-----------------|----------------|----------------|
A:-----------------|----------------|----------2-1-0-|
E:-5-6-6-6-3-5-5-5-|----------------|-----3----------|
B:-----------------|-3-5-5-5--5-0-3-|-5-0---5--------|

Riff 6: (x2)(might really be riff 5)
G:------------|------------|------------|------------|------------|------------|------------|------------|
D:------------|------------|------------|------------|------------|------------|------------|------------|
A:------------|------------|------------|------------|------------|------------|------------|------------|
E:------------|------------|------------|------------|------------|------------|------------|------------|
B:------------|------------|------------|------------|------------|------------|------------|------------|

Riff 5 (x3)

Fill 3:
G:------------|------------|------------|------------|
D:------------|------------|------------|------------|
A:------------|------------|------------|------------|
E:------------|------------|------------|------------|
B:------------|------------|------------|------------|

Pause for 7 measures
Intro
Riff 1
 
End:
G:--------------|
D:--------------|
A:-1--1--1--1-0-|
E:--------------|

Break till end
Comments