Megadeth - Last Rites/love You To Deth Chords & Tabs

 

Last Rites/love You To Deth Chords & Tabs

Megadeth Chords & Tabs

Version: 1 Type: Tab 0 ratings
1 star 2 stars 3 stars 4 stars 5 stars
comments

Last Rites/love You To Deth Tab

   
Megadeth
album Killing is my business (and business is good)
Last rites/Love you to Deth 

Gtr I (E A D G B E) - 'Dave Mustaine'
Gtr II (E A D G B E) - 'Chris Poland'
Gtr III (D A D G B E) - 'Piano (Dave Mustaine)'

 Last Rites
  Q=98
  N.C.
 4/4
  Gtr III
|--17-15-17-13-17-12-17----17-12-17-13-17----17-|
|-----------------------15----------------15----|
|-----------------------------------------------|
|-----------------------------------------------|
|-----------------------------------------------|
|-----------------------------------------------|


|----17----17-12-17----17----17----17----17----17--|
|-14----15----------------------14----15----17-----|
|-------------------14----16-----------------------|
|--------------------------------------------------|
|--------------------------------------------------|
|--------------------------------------------------|


|--17-15-17-13-17-12-17----17-12-17-13-17----17-|
|-----------------------15----------------15----|
|-----------------------------------------------|
|-----------------------------------------------|
|-----------------------------------------------|
|-----------------------------------------------|
|
| Gtr I
|--17-15----13----12----------12----13----------|
|-----------------------15----------------15----|
|-----------------------------------------------|
|-----------------------------------------------|
|-----------------------------------------------|
|-----------------------------------------------|


|----17----17-12-17----17----17----17----17----17-|
|-14----15----------------------14----15----17----|
|-------------------14----16----------------------|
|-------------------------------------------------|
|-------------------------------------------------|
|-------------------------------------------------|
|
|-------------12----------------------------------|
|-14----15----------------------14----15----17----|
|-------------------14----16----------------------|
|-------------------------------------------------|
|-------------------------------------------------|
|-------------------------------------------------|


|--18-17-18-15-18-13-18-12-18-13-18-15-18----18-|
|-----------------------------------------13----|
|-----------------------------------------------|
|-----------------------------------------------|
|-----------------------------------------------|
|-----------------------------------------------|
|
|--18-17----15----13----12----13----15----------|
|-----------------------------------------13----|
|-----------------------------------------------|
|-----------------------------------------------|
|-----------------------------------------------|
|-----------------------------------------------|


|--17-15-17-13-17-12-17----17-12-17-13-17----17-|
|-----------------------15----------------13----|
|-----------------------------------------------|
|-----------------------------------------------|
|-----------------------------------------------|
|-----------------------------------------------|
|
|--17-15----13----12----------12----13----------|
|-----------------------15----------------13----|
|-----------------------------------------------|
|-----------------------------------------------|
|-----------------------------------------------|
|-----------------------------------------------|


  H.=H
|--15-13-15-12-15-10-15----15-10-15-12-15-13-15-|
|-----------------------14----------------------|
|-----------------------------------------------|
|-----------------------------------------------|
|-----------------------------------------------|
|-----------------------------------------------|
|
|--15-13----12----10----------10----12----13----|
|-----------------------14----------------------|
|-----------------------------------------------|
|-----------------------------------------------|
|-----------------------------------------------|
|-----------------------------------------------|


  Q=50
|-------17----------17----------15----------15----|
|-15----------15----------14----------14----------|
|----14----14----14----14----14----14----14----14-|
|-------------------------------------------------|
|-------------------------------------------------|
|-------------------------------------------------|
|
|-------17----------17----------15----------15----|
|-15----------15----------14----------14----------|
|----14----14----14----14----14----14----14----14-|
|-------------------------------------------------|
|-------------------------------------------------|
|-------------------------------------------------|


  Q=100                     H.=H
  Bb                          A
|-----------------------------------------------------------------|
|-11--------------------------11----------------------------------|
|-10--------------------------10----------------------------------|
|--8---------------------------7----------------------------------|
|-----------------------------------------------------------------|
|-----------------------------------------------------------------|
|
|  ~~               T             T            T            T
|-----------------------------------------------------------------|
|-----------------------------------------------------------------|
|-----------------------------------------------------------------|
|--8-8-7-8-7-5-7-8-10-8-7-5-7--8-12-8-7-5-7-8-15-8-7-5-7-8-17-8-7-|
|-----------------------------------------------------------------|
|-----------------------------------------------------------------|


  G                                  F
|------------------------------------------------------------------------|
|-8----------------------------------6-----------------------------------|
|-9----------------------------------7-----------------------------------|
|-5----------------------------------3-----------------------------------|
|------------------------------------------------------------------------|
|------------------------------------------------------------------------|
|
|        T            T            T            T            T
|------------------------------------------------------------------------|
|------------------------------------------------------------------------|
|------------------------------------------------------------------------|
|-5-7-8-20-8-7-5-7-8-17-8-7-5-7-8-15-8-7-5-7-8-12-8-7-5-7-8-10-8-7-5-0---|
|------------------------------------------------------------------------|
|------------------------------------------------------------------------|


  Q=80                     Q=100
  D     Bb5    A5   G5     D5
|------------|-----------|----------------------|
|--3---------|-----------|-3--------------------|
|--2----3----|-2----0----|-2--------------------|
|--0----3----|-3----2----|-0--------------------|
|------------|-----------|----------------------|
|------------|-----------|-0----0-0-0-0-0-0-0-0-|
|
|  ~~
|------------|-----------|----------------------|
|------------|-----------|----------------------|
|------------|-----------|----------------------|
|------------|-----------|-0--------------------|
|-/5----8----|-7----5----|-0--------------------|
|-------6----|-5----3----|----------------------|


|-----------------------------------|
|-----------------------------------|
|-----------------------------------|
|-----------------------------------|
|-----------------------------------|
|--0--0-0-0-0-0-0-0-0-0-0-0-0-0-0-0-|
|
|-----------------------------------|
|-----------------------------------|
|-----------------------------------|
|-(0)-------------------------------|
|-(0)-------------------------------|
|-----------------------------------|


|-----------------------------------|-----------------------------------|
|-----------------------------------|-----------------------------------|
|-----------------------------------|-----------------------------------|
|-----------------------------------|-----------------------------------|
|-----------------------------------|-----------------------------------|
|--0--0-0-0-0-0-0-0-0-0-0-0-0-0-0-0-|--0--0-0-0-0-0-0-0-0-0-0-0-0-0-0-0-|
|
|-----------------------------------|-----------------------------------|
|-----------------------------------|-----------------------------------|
|-----------------------------------|-----------------------------------|
|-(0)-------------------------------|-(0)-------------------------------|
|-(0)-------------------------------|-(0)-------------------------------|
|-----------------------------------|-----------------------------------|


                                Loved To Deth
                                 Q=148
                                 N.C.
|-------------|---------------||---------------------------------|
|-------------|---------------||---------------------------------|
|---2---------|---(2)---------||---------------------------------|
|---0---------|---(0)---------||---------------------------------|
|---0---------|---(0)---------||---------------------------------|
|---0---------|---(0)---------||---------------------------------|
|
|                                PM--|           PM--|
|-------------|---------------||---------------------------------|
|-[15]--------|-([15])--------||---------------------------------|
|-------------|---------------||---------------------------------|
|-------------|---------------||-------7p5---5h7-------8p7---5h8-|
|-------------|---------------||-0-0-0-----7-----0-0-0-----8-----|
|-------------|---------------||---------------------------------|


|------------------------------------|
|------------------------------------|
|------------------------------------|
|------------------------------------|
|------------------------------------|
|------------------------------------|
|
| PM--|           PM--|
|------------------------------------|
|------------------------------------|
|------------------------------------|
|-------7p5---5h7-------8p7---5h8----|
|-0-0-0-----7-----0-0-0-----8--------|
|------------------------------------|


                                                                  G5
  Gtr I
  PM--|           PM--|             PM--|
|---------------------------------|---------------------------------|
|---------------------------------|---------------------------------|
|---------------------------------|-----------------7p5-8p5---------|
|-------7p5---5h7-------8p7---5h8-|-------7p5---5h7---------7p5-8p5-|
|-0-0-0-----7-----0-0-0-----8-----|-0-0-0-----7---------------------|
|---------------------------------|---------------------------------|
|
| Gtr II
|---------------------------------|---------------------------------|
|---------------------------------|---------------------------------|
|---------------------------------|---------------------------------|
|---------------------------------|---------------------------------|
|---------------------------------|-------------------------------5-|
|---------------------------------|-------------------------------3-|


  A5              Bb5           G5  A5              Bb5           G5
  PM--|           PM--|             PM--|           PM--|
|---------------------------------|---------------------------------|
|---------------------------------|---------------------------------|
|---------------------------------|---------------------------------|
|-------7p5---5h7-------8p7---5h8-|-------7p5---5h7-------8p7---5h8-|
|-0-0-0-----7-----0-0-0-----8-----|-0-0-0-----7-----0-0-0-----8-----|
|---------------------------------|---------------------------------|
|
|---------------------------------|---------------------------------|
|---------------------------------|---------------------------------|
|---------------------------------|---------------------------------|
|---------------------------------|---------------------------------|
|-7---------------8-------------5-|-7---------------8-------------5-|
|-5---------------6-------------3-|-5---------------6-------------3-|


  A5              Bb5           G5  A5              Bb5
  PM--|           PM--|             PM--|
|---------------------------------|---------------------------------|
|---------------------------------|---------------------------------|
|---------------------------------|-----------------7p5-8p5---------|
|-------7p5---5h7-------8p7---5h8-|-------7p5---5h7---------7p5-8p5-|
|-0-0-0-----7-----0-0-0-----8-----|-0-0-0-----7---------------------|
|---------------------------------|---------------------------------|
|
|---------------------------------|---------------------------------|
|---------------------------------|---------------------------------|
|---------------------------------|---------------------------------|
|---------------------------------|---------------------------------|
|-7---------------8-------------5-|-7---------------8---------------|
|-5---------------6-------------3-|-5---------------6---------------|


    $
    N.C.
    Gtrs I, II
    PM--|           PM--|             PM--|           PM--|
||----------------------------------|----------------------------------|
||o---------------------------------|----------------------------------|
||----------------------------------|----------------------------------|
||--------7p5---5h7-------8p7---5h8-|-------7p5---5h7-------8p7---5h8--|
||o-0-0-0-----7-----0-0-0-----8-----|-0-0-0-----7-----0-0-0-----8------|
||----------------------------------|----------------------------------|


  PM--|           PM--|             PM--|
                                                                     4x
|---------------------------------|----------------------------------||
|---------------------------------|---------------------------------o||
|---------------------------------|-----------------7p5-8p5----------||
|-------7p5---5h7-------8p7---5h8-|-------7p5---5h7---------7p5-8p5--||
|-0-0-0-----7-----0-0-0-----8-----|-0-0-0-----7---------------------o||
|---------------------------------|----------------------------------||


   Verse                          Chorus
    A5       EbBbA5G5    Eb5       E5F#N.C.    E5  F#5 G5F#5
    PM----|    PM------|
                            8x                                 4x
||--------------------------||-||------------------------------||
||o------------------------o||-||o----------------------------o||
||--------------------------||-||------------------------------||
||-----------8-----------8--||-||------------------------------||
||o-7-7-7-7--6-8-7-5-5-5-6-o||-||o-2h4---------2-2-4-4s5-4----o||
||--5-5-5-5----6-5-3-3-3----||-||--0h2-2p0-2p0-0-0-2-2s3-2-0---||


                                                       D.S.
    A5       EbBbA5G5    Eb5       E5F#N.C.    E5  F#5 G5F#5
    PM----|    PM------|
||--------------------------||-||------------------------------||
||o------------------------o||-||o----------------------------o||
||--------------------------||-||------------------------------||
||-----------8-----------8--||-||------------------------------||
||o-7-7-7-7--6-8-7-5-5-5-6-o||-||o-2h4---------2-2-4-4s5-4----o||
||--5-5-5-5----6-5-3-3-3----||-||--0h2-2p0-2p0-0-0-2-2s3-2-0---||


    A5G#G5F#F5E5  G5F#F5E5EbD5  N.C.
                                PM--|           PM--|
||--------------|-------------|---------------------------------|
||o-------------|-------------|---------------------------------|
||--------------|-------------|---------------------------------|
||--------------|---------1-0-|-------7p5---5h7-------8p7---5h8-|
||o-7-6-5-4-3-2-|-5-4-3-2-1-0-|-0-0-0-----7-----0-0-0-----8-----|
||--5-4-3-2-1-0-|-3-2-1-0-----|---------------------------------|


                                     Solo
                                      A5               Eb5     Bb5A5G5        Eb5
  Gtr II
  PM--|                                PM-----------|           PM-------|
|----------------------------------||--------------------------------------------|
|---------------------------------o||--------------------------------------------|
|-----------------7p5-8p5----------||--------------------------------------------|
|-------7p5---5h7---------7p5-8p5--||------------------8-----------------------8-|
|-0-0-0-----7---------------------o||--7----7--7----7--6--------8-7--5-5---5---6-|
|----------------------------------||--5----5--5----5-----------6-5--3-3---3-----|
|
| Gtr I
| PM--|                                                              ~~~~~~~~~
|----------------------------------||-----------------------------------------20-|
|---------------------------------o||-20------20---------20----------------------|
|-----------------7p5-8p5----------||-19b21---19b21------19b21-17---17---(17)----|
|-------7p5---5h7---------7p5-8p5--||--------------------------------------------|
|-0-0-0-----7---------------------o||--------------------------------------------|
|----------------------------------||--------------------------------------------|


  A5               Eb5   Bb5   A5G5         Eb5
   PM-----------|         PM--------------|
|--------------------------------------------------|
|--------------------------------------------------|
|--------------------------------------------------|
|-------------------8-----------------------8------|
|--7----7--7----7---6-----8----7--5-----5-5-6------|
|--5----5--5----5---------6----5--3-----3-3--------|
|
|-22b24---22b24----22b24-22b24---22b24========(22)-|
|--------------------------------------------------|
|--------------------------------------------------|
|--------------------------------------------------|
|--------------------------------------------------|
|--------------------------------------------------|


  A5                                          Eb5              Bb5  A5    G5              Eb5
   PM---------------------------|                              PM--------------------|
|--------------------------------------------------------------------------------------------------|
|--------------------------------------------------------------------------------------------------|
|--------------------------------------------------------------------------------------------------|
|---------------------------------------------8--------------------------------------------8-------|
|--7--------------7-----7-------7-------------6----------------8-----7----5-----5----5-----6-------|
|--5--------------5-----5-------5------------------------------6-----5----3-----3----3-------------|
|
|-20r-23-20----20----------------------------------------------------------------------------------|
|-----------22------22-22-20b22------20b22-22---20b22----20b22-----------------17-19---17-19-20-19-|
|---------------------------------21------------------21---------21-20-19---17---------------------|
|--------------------------------------------------------------------------------------------------|
|--------------------------------------------------------------------------------------------------|
|--------------------------------------------------------------------------------------------------|


  A5                                   Eb5         BbA5G5        Eb5
   PM-----------------------|                      PM----------|
|--------------------------------------------------------------------|
|--------------------------------------------------------------------|
|--------------------------------------------------------------------|
|--------------------------------------8-------------------------8---|
|--7-------------7-----7----7----------6-----------8-7-5---5---5-6---|
|--5-------------5-----5----5----------------------6-5-3---3---3-----|
|
|--------------------------------------------------------------------|
|-17-----------------------------------------------------------------|
|----19-19b20-19---17-19-20---19-17-19---17--------------------------|
|-------------------------------------------19b20========(19)\-------|
|--------------------------------------------------------------------|
|--------------------------------------------------------------------|

[ Tab from: http://www.guitartabs.cc/tabs/m/megadeth/last_riteslove_you_to_deth_tab.html ]
  A5                                      Eb5        Bb5  A5    G5              Eb5
   PM-----------------------------|                  PM--------------------|
|----------------------------------------------------------------------------------------|
|----------------------------------------------------------------------------------------|
|----------------------------------------------------------------------------------------|
|-----------------------------------------8--------------------------------------8-------|
|--7----------------7--7----------7-------6----------8-----7----5-----5----5-----6-------|
|--5----------------5--5----------5------------------6-----5----3-----3----3-------------|
|
|-------------------------------------------------------------------------------------17-|
|--------------------------------------------------------------------13-15---13-15b17----|
|---------------------------------------------------------12-13---14---------------------|
|-10-10-12b13-13b14---14b15-17b19---17b19p==16-17-16---15--------------------------------|
|----------------------------------------------------------------------------------------|
|----------------------------------------------------------------------------------------|


  A5                                   Eb5        Bb5  A5       G5           Eb5
   PM-----------------------|                     PM--------------------|
|--------------------------------------------------------------------------------------|
|--------------------------------------------------------------------------------------|
|--------------------------------------------------------------------------------------|
|--------------------------------------8--------------------------------------8--------|
|--7-------------7-----7----7----------6----------8-----7-------5--5----5-----6--------|
|--5-------------5-----5----5---------------------6-----5-------3--3----3--------------|
|
|-15-15b17-13-15---17-12-15---12-15b17---12-15-12---15-12-15b17---17-20---17-20-20-23--|
|--------------------------------------------------------------------------------------|
|--------------------------------------------------------------------------------------|
|--------------------------------------------------------------------------------------|
|--------------------------------------------------------------------------------------|
|--------------------------------------------------------------------------------------|


  A5                                   Eb5        Bb5  A5    G5              Eb5
   PM-----------------------|                     PM--------------------|
|-------------------------------------------------------------------------------------|
|-------------------------------------------------------------------------------------|
|-------------------------------------------------------------------------------------|
|--------------------------------------8--------------------------------------8-------|
|--7-------------7-----7----7----------6----------8-----7----5-----5----5-----6-------|
|--5-------------5-----5----5---------------------6-----5----3-----3----3-------------|
|
|-20-17-17-17-23---20-17-20---17-22-20---17-17-17--------------17---------------------|
|---------------------------------------------------20-17-20------20p17---18-20p17----|
|----------------------------------------------------------------------------------17-|
|-------------------------------------------------------------------------------------|
|-------------------------------------------------------------------------------------|
|-------------------------------------------------------------------------------------|


  A5                                   Eb5        Bb5  A5    G5              Eb5
   PM-----------------------|                     PM--------------------|
|---------------------------------------------------------------------------------------|
|---------------------------------------------------------------------------------------|
|---------------------------------------------------------------------------------------|
|--------------------------------------8--------------------------------------8---------|
|--7-------------7-----7----7----------6----------8-----7----5-----5----5-----6---------|
|--5-------------5-----5----5---------------------6-----5----3-----3----3---------------|
|
|---------------------------------------------------------------------------------------|
|----------18b20---18p17-15---17----15--------------------------------------------------|
|-18-19-20-----------------------16------16-14-16---14----14----------------------------|
|------------------------------------------------------13------13-14-13---12-10---------|
|-------------------------------------------------------------------------------9-12----|
|---------------------------------------------------------------------------------------|


  E5    F#N.C.        E5        F#5        G5F#5
|---------------------------------------------------|
|---------------------------------------------------|
|---------------------------------------------------|
|---------------------------------------------------|
|--2h===4-------------2-------2-4-4s=======5---4----|
|--0h===2-2p0--2p===0-0-------0-2-2s=======3---2--0-|
|
|-24b26-------24b26-----24b26-------24b26====(24)---|
|---------------------------------------------------|
|---------------------------------------------------|
|---------------------------------------------------|
|---------------------------------------------------|
|---------------------------------------------------|


  E5    F#N.C.            E5      F#5     G5     F#5
|-------------------------------------------------------|
|-------------------------------------------------------|
|-------------------------------------------------------|
|-------------------------------------------------------|
|--2h===4------------------2----2--4----4s=5-------4----|
|--0h===2--2p===0--2p===0--0----0--2----2s=3-------2--0-|
|
|-24b26---24b26---24b26---24b26---24b26---24b26==(24)r==|
|-------------------------------------------------------|
|-------------------------------------------------------|
|-------------------------------------------------------|
|-------------------------------------------------------|
|-------------------------------------------------------|


  E5 F#5N.C.        E5   F#5   G5    F#5
|------------------------------------------------|
|------------------------------------------------|
|------------------------------------------------|
|------------------------------------------------|
|--2h=4--------------2-2--4--4s=5-----4----------|
|--0h=2--2p=0--2p=0--0-0--2--2s=3-----2-----0----|
|
|-22-24-22-24-22------------------22-------22-24-|
|----------------24-23---24-23-24----24-23-------|
|------------------------------------------------|
|------------------------------------------------|
|------------------------------------------------|
|------------------------------------------------|


  E5    F#N.C.                E5  F#5     G5    F#5
|----------------------------------------------------|
|----------------------------------------------------|
|----------------------------------------------------|
|----------------------------------------------------|
|--2h===4---------------------2-2--4----4s=5----4----|
|--0h===2-2p======0-2p0-------0-0--2----2s=3----2-0--|
|
|-24b30-----24b30-------24b30-----24b30---24b30------|
|----------------------------------------------------|
|----------------------------------------------------|
|----------------------------------------------------|
|----------------------------------------------------|
|----------------------------------------------------|


  A5                          Eb5        Bb5  A5    G5              Eb5
   PM--------------|                     PM--------------------|
|----------------------------------------------------------------------------|
|----------------------------------------------------------------------------|
|----------------------------------------------------------------------------|
|-----------------------------8--------------------------------------8-------|
|--7-------7--7----7----------6----------8-----7----5-----5----5-----6-------|
|--5-------5--5----5---------------------6-----5----3-----3----3-------------|
|
|-21p19------22p21------21------22p21------21----22p==21----21---------22p20-|
|-------22-----------22----22---------22------22---------22------22-22-------|
|----------------------------------------------------------------------------|
|----------------------------------------------------------------------------|
|----------------------------------------------------------------------------|
|----------------------------------------------------------------------------|


  A5                                   Eb5        Bb5  A5    G5         Eb5
   PM-----------------------|                     PM-----------------|
|--------------------------------------------------------------------------------|
|--------------------------------------------------------------------------------|
|--------------------------------------------------------------------------------|
|--------------------------------------8---------------------------------8-------|
|--7-------------7-----7----7----------6----------8-----7----5-----5--5--6-------|
|--5-------------5-----5----5---------------------6-----5----3-----3--3----------|
|
|----20----20-22p==20----20------20-22p==20----20------20-22p==20-------20-22----|
|-22----22------------22------22------------22------22------------22-24----------|
|--------------------------------------------------------------------------------|
|--------------------------------------------------------------------------------|
|--------------------------------------------------------------------------------|
|--------------------------------------------------------------------------------|


  E5    F#N.C.                 E5  F#5    G5F#5
|-----------------------------------------------|
|-----------------------------------------------|
|-----------------------------------------------|
|-----------------------------------------------|
|--2h===4----------------------2-2---4--4s5-4---|
|--0h===2-2p======0-2p0--------0-0---2--2s3-2-0-|
|
|-24b26-----24b26-------24b26======(24)r========|
|-----------------------------------------------|
|-----------------------------------------------|
|-----------------------------------------------|
|-----------------------------------------------|
|-----------------------------------------------|


  E5    F#N.C.                 E5  F#5    G5F#5
|----------------------------------------------------|
|----------------------------------------------------|
|----------------------------------------------------|
|----------------------------------------------------|
|--2h===4----------------------2-2---4--4s5-4--------|
|--0h===2-2p======0-2p0--------0-0---2--2s3-2---0----|
|
|-24b29-----24b29-------24b29======(24)r======/12-8--|
|----------------------------------------------------|
|----------------------------------------------------|
|----------------------------------------------------|
|----------------------------------------------------|
|----------------------------------------------------|


  A5          G#5       G5           F#5         F5    E5
|-------------------------------------------------------------|
|-------------------------------------------------------------|
|-------------------------------------------------------------|
|-------------------------------------------------------------|
|-7-----------6---------5------------4-----------3------2-----|
|-5-----------4---------3------------2-----------1------0-----|
|
|-------------------------------------------------------------|
|-----------------------8-10-8-10h11---10-8h10-8-6h8-6-10-----|
|---------------7-9-7-9-----------------------------------/12-|
|-7-9-10-9-10-------------------------------------------------|
|-------------------------------------------------------------|
|-------------------------------------------------------------|


  G5             F#5           F5                E5             Eb5         D5
|---------------------------------------------------------------------------------------|
|---------------------------------------------------------------------------------------|
|---------------------------------------------------------------------------------------|
|-----------------------------------------------------------------1----------0----------|
|--5-------------4--------------3----------------2----------------1----------0----------|
|--3-------------2--------------1----------------0--------------------------------------|
|
|-------------11---12----------11-12-14-12-14b16---11-12--------------------14-12-------|
|-10-13-10-13---------13-12-13---------------------------15b16==(15)-13r-15-------15----|
|---------------------------------------------------------------------------------------|
|---------------------------------------------------------------------------------------|
|---------------------------------------------------------------------------------------|
|---------------------------------------------------------------------------------------|


  A5               Eb5     Bb5A5G5        Eb5
   PM-----------|           PM-------|
|--------------------------------------------|
|--------------------------------------------|
|--------------------------------------------|
|------------------8-----------------------8-|
|--7----7--7----7--6--------8-7--5-5---5---6-|
|--5----5--5----5-----------6-5--3-3---3-----|
|
|                                ~~~~~~~~~
|--------------------------------------------|
|-20------20---------20----------------------|
|-19b21---19b21------19b21-17---17---(17)----|
|-----------------------------------------19-|
|--------------------------------------------|
|--------------------------------------------|


  A5                                   Eb5        Bb5  A5    G5           Eb5
   PM-----------------------|                     PM--------------------|
|----------------------------------------------------------------------------|
|----------------------------------------------------------------------------|
|----------------------------------------------------------------------------|
|--------------------------------------8----------------------------------8--|
|--7-------------7-----7----7----------6----------8-----7----5------5---5-6--|
|--5-------------5-----5----5---------------------6-----5----3------3---3----|
|
|----------------------------------------------------------------------------|
|----------------------------------------------------------------------------|
|-17h19----17-19---17----17--------------------------------------------------|
|-------19------------19------19p18-17------17-17----------------------------|
|----------------------------------------19---------19-18-17-----------------|
|--------------------------------------------------------------17-(17)\------|


  A5             G#5           G5             F#5           F5       E5
|-----------------------------------------------------------------------------|
|-----------------------------------------------------------------------------|
|-----------------------------------------------------------------------------|
|-----------------------------------------------------------------------------|
|--7-------------6--------------5-------------4--------------3--------2-------|
|--5-------------4--------------3-------------2--------------1--------0-------|
|
|-22-20-17-17------------17---------------------------------------------------|
|-------------20---17-20----20-17-20-17----17---------17-19-17----------------|
|---------------------------------------19------19-17----------19-17----------|
|-----------------------------------------------------------------------------|
|--------------------------------------------------------------------19-17----|
|--------------------------------------------------------------------------20-|


  G5             F#5           F5             E5            Eb5   D5
|--------------------------------------------------------------------|
|--------------------------------------------------------------------|
|--------------------------------------------------------------------|
|------------------------------------------------------------1-----0-|
|--5-------------4--------------3-------------2--------------1-----0-|
|--3-------------2--------------1-------------0----------------------|
|
|--------------------------------------------------------------------|
|----------20-17-----------------------------------------------------|
|-17-19-20---------20-19-17-19-20-19-17------------------------------|
|---------------------------------------19-18---17----17-18-19-------|
|--------------------------------------------------19----------17-19-|
|--------------------------------------------------------------------|


  N.C.
   PM-----|                PM-----|
|-------------------------------------------------|
|-------------------------------------------------|
|-------------------------------------------------|
|-----------7p=5------5h7-----------8p=7------5h8-|
|--0----0-0---------7------0----0-0---------8-----|
|-------------------------------------------------|
|
|  TP          TP          TP          TP
|-------------------------------------------------|
|-20----------20----------20----------20----------|
|-19b21-------19b21-------19b21-------19b21-------|
|-------------------------------------------------|
|-------------------------------------------------|
|-------------------------------------------------|


   PM-----|
|--------------------------------------------------|
|--------------------------------------------------|
|--------------------------7p===5-8p5--------------|
|-----------7p=5------5h7--------------7p====5-8p5-|
|--0----0-0---------7------------------------------|
|--------------------------------------------------|
|
|  TP          TP          TP          TP
|--------------------------------------------------|
|-20----------20----------20----------20-----------|
|-19b21-------19b21-------19b21-------19b21========|
|--------------------------------------------------|
|--------------------------------------------------|
|--------------------------------------------------|


 Interlude
                                                                E5Bb5
   PM---------------------------------------------|       PM--|
|-------------------------------------|-----------------------------|
|-------------------------------------|-----------------------------|
|-------------------------------------|-----------------------------|
|-------------------------------------|-------------------------9---|
|-------------------------------------|-------------4h5p4-------7-8-|
|--5--5-5-6-6-6-5-5--5--3-3-3-5-5-6-6-|-5-5-5-6-6-6-------6-5-5---6-|
|
|-------------------------------------|-----------------------------|
|-20rs==============19\---------------|-----------------------------|
|-19s===============18\---------------|-----------------------------|
|-------------------------------------|-----------------------------|
|-------------------------------------|-----------------------------|
|-------------------------------------|-----------------------------|


    N.C.                                                      E5Bb5
    Gtr II
    PM------------------------------------------|       PM--|
                                                                    3x
||----------------------------------|-------------------------------||
||o---------------------------------|------------------------------o||
||----------------------------------|-------------------------------||
||----------------------------------|-------------------------9-----||
||o---------------------------------|-------------4h5p4-------7-8--o||
||--5-5-5-6-6-6-5-5-5-3-3-3-5-5-6-6-|-5-5-5-6-6-6-------6-5-5---6---||


   Verse
    N.C.                                                      E5Bb5
    Gtrs I, II
    PM------------------------------------------|       PM--|
                                                                    4x
||----------------------------------|-------------------------------||
||o---------------------------------|------------------------------o||
||----------------------------------|-------------------------------||
||----------------------------------|-------------------------9-----||
||o---------------------------------|-------------4h5p4-------7-8--o||
||--5-5-5-6-6-6-5-5-5-3-3-3-5-5-6-6-|-5-5-5-6-6-6-------6-5-5---6---||


    A5BbA5 G5A5Bb5 A5BbN.C.        E5Bb5
                                        4x
||---------------|----------------------||
||o--------------|---------------------o||
||---------------|----------------------||
||---------------|-----------------9----||
||o-7-8-7--5-7-8-|-7-8-4h5p4-------7-8-o||
||--5-6-5--3-5-6-|-5-6-------6-5-5---6--||


   Outro
    N.C.                                A5
||-----------------------------------||----------|--------|
||o---------------------------------o||----------|--------|
||-----------------------------------||----------|--------|
||-----------------------------------||----------|--------|
||o-------0h1h3-0h3h5-0h3h6-5p3p0---o||-7--------|-(7)----|
||--0h3h5-------------------------3--||-5--------|-(5)----|


  Bb5                     A5
|----------|------------|-----------*|
|----------|------------|-----------*|
|----------|------------|-----------*|
|----------|------------|-----------*|
|-8--------|-(8)--------|-7\--------*|
|-6--------|-(6)--------|-5\--------*|



			 

Comments