Megadeth - Kill The King Chords & Tabs

 

Kill The King Chords & Tabs

Megadeth Chords & Tabs

Version: 6 Type: Tab 0 ratings
1 star 2 stars 3 stars 4 stars 5 stars
comments

Kill The King Tab

   
Kill the King

                                MEGADETH


          INTRO                                               8x
E-------||------------------------|---------------------------||
B-------||------------------------|---------------------------||
G---2:--||*-----------------------|--------------------------*||
D---4:--||*-----------------------|--------------------------*||
A-------||------------------------|---------------------------||
E-------||---0-----0-----0-----0--|--0--0--0--0--0--0--0--0---||
            P.M.............................................|

      VERSE                                               8x
E---||------------------------|---------------------------||
B---||------------------------|---------------------------||
G---||*-----------------------|--------------------------*||
D---||*-----------------------|--------------------------*||
A---||------------------------|---------------------------||
E---||---0-----0-----0-----0--|--0--0--0--0--0--0--0--0---||
         P.M............................................|

      w/tremolo bar
E||--------------------||--||------------------------|------------------------|
B||--------------------||--||------------------------|------------------------|
G||*--5---4-----------*||--||*-----------------------|------------------------|
D||*--5---4~~~--------*||--||*-----------------------|------------------------|
A||---3---3---~~~------||--||------------------------|------------------------|
E||--------------~~~---||--||---0-----0-----0-----0--|--0--0--0--0--0--0------|
                               P.M............................................

                      w/tremolo bar 2x
E----------||--||-------------------||--||-------------------------|
B----------||--||-------------------||--||-------------------------|
G---------*||--||*--5--4-----------*||--||*------------------------|
D---------*||--||*--5--4~~~--------*||--||*------------------------|
A----------||--||---3--3---~~~------||--||------5h7-----5h7-----5h7|
E---0--0---||--||-------------~~~---||--||---0-------0-------0-----|
.........|


E-------------------------|------------------------------|----------------------|
B-------------------------|------------------------------|----------------------|
G-------------------------|------------------------------|----------------------|
D-------------------------|------------------------------|----------------------|
A---------5h7-----5h7-----|----------9h10----9h10--------|-----9h10-----9h10----|
E------0-------0-------0--|-------0-------0--------------|--0--------0----------|

E--------|------------------------|-----------------------|------------------|
B--------|------------------------|-----------------------|------------------|
G--------|------------------------|-----------------------|------------------|
D--------|------------------------|-----------------------|------------------|
A------9h|10------7h9-----7h9-----|--7h9-----7h9-----7h9--|-----7h8-----7h8--|
E---0----|-----0-------0-------0--|-------0-------0-------|--0-------0-------|

E----------------|--------------||-----------------------|---------------------|
B----------------|--------------||-----------------------|---------------------|
G----------------|-------------*||-----------------------|---------------------|
D----------------|-------------*||-----------------------|---------------------|
A------7h8-----7h|8-------7h8---||-----7h8-----7h8-----7h|8-------7h8-----7h8--|
E---0-------0----|-----0--------||--0-------0-------0----|-----0-------0-------|


  Then restart everything from the beginning and:

                                                           8x
E||----------------------------------|---------------------||--||----------|
B||----------------------------------|---------------------||--||----------|
G||*---------------------------------|--------------------*||--||*---------|
D||*---------------------------------|--------------------*||--||*--5------|
A||----------------------------------|---------------------||--||---5------|
E||----0-----0-----0--0--0--0-----0--|--0-----0--0--0--0---||--||---3------|
   P.M..................................................|


E------------|--------------|--------------|--------------|-------------|
B------------|--------------|--------------|--------------|-------------|
G------------|--------------|--------------|--------------|-------------|
D------6--3--|--------------|--------------|--------------|-------------|
A------6--3--|--------------|--------------|--------------|-------------|
E------4--1--|--0--0--0--0--|--0--0--0--0--|--0--0--0--0--|--0--0--0--0-|
               P.M.....................................................|
[ Tab from: http://www.guitartabs.cc/tabs/m/megadeth/kill_the_king_tab_ver_6.html ]
SOLO:
E-----9^--7^--9^--10^--|-----15-------12-15-13-------12-15/18-------12-18-17-|
B----------------------|------------14-------------14-------------14---------|
G----------------------|-------12-15----------12-15----------12-15-----------|
D----------------------|-----------------------------------------------------|
A----------------------|-----------------------------------------------------|
E----------------------|-----------------------------------------------------|
                               /                                 (Very not sure about this one)
E--------12-10-15-----|-21---------------------------------------------------------------------|
/bff-----------------------------|-------------------------------------------------------------|
B------14--------------|---------------------------------------|-------------------------------|
G-12-15----------------|---------------------------------------|----------------------0-4-3-2--|
D----------------------|--------------------------------3--2---|-----------------0h1h3---------|
A----------------------|-------------------------2--3----------|------------0h1h3--------------|
E----------------------|-------------0--1--3--4----------------|-0h1h3-0h1h3-------------------|
                                    P.M..............|  A.H..|

E----------------------------|-12^rp10---------------------------------|
B----------------------------|---------8-10-8-10h8------------------5--|
G-4-3-2----------------------|--------------------------------------x--|
D-------5-4-3-5-4-3-4-3-2~~~-|----------------------3/6-6-6-5/8-8-8-2--|
A----------------------------|----------------------x---x-x-x---x-x-x--|
E----------------------------|----------------------1/3-3-3-3/6-6-6-0--|

                                               (very, very not sure about this one too)
E--------------------------------------------|------------------------------------------|
B----8-8-----6--------0-3-5-6--5h6p5p3-------|-12-10----------12-10---------------------|
G------------------6-6----------------6-32--|------12-11-10-9-----12-11-10-9-10-11-12---|
D-/5-----5-5---5-5---------------------------|------------------------------------------|
A--------------------------------------------|------------------------------------------|
E--------------------------------------------|------------------------------------------|
                                                                                 END SOLO
E---------------------------------------------*12--|-----------------------------15--|
B--------------------10------------9-10-11-12-------|--------------------------------|
G-9-10-11-12-9-10-12----9-10-11-12------------------|------------------------7-10----|
D---------------------------------------------------|----------------8-10-11---------|
A---------------------------------------------------|-----3-4-5-8-10-----------------|
E---------------------------------------------------|-3-6----------------------------|
                                             *=SEMI A.H.


OUTRO (LEAD GTR. GETS IN AFTER RHYTM GTR. HAS PLAYED THE RIFF 2X):

   RHYTM GTR:
E||------------------------------------------------------------|
B||------------------------------------------------------------|
G||*--4-----4--4-----4--4-----4--4--4--4--4--------------------|
D||*--2-----2--2-----2--2-----2--2--2--2--2--------------------|
A||------------------------------------------------------------|
E||------------------------------------------------------------|


                                            4x
E------------------------------------|------||-------|
B------------------------------------|------||-------|
G------7--------6--------5-----------|--7--*||--4----|
D------5--------4--------3-----------|--5--*||--2----|
A------------------------------------|------||-------|
E------------------------------------|------||-------|
 same rhytm with these 3 chords and:

E||-15p12p0-15p12p0-15p12p0-15p12p0-19p15p0-19p15p0-19p15p0-19p15p0-|
B||-----------------------------------------------------------------|
G||*----------------------------------------------------------------|
D||*----------------------------------------------------------------|
A||-----------------------------------------------------------------|
E||-----------------------------------------------------------------|

E-18p14p0-18p14p0-18p14p0-18p14p0-17p13p0-17p13p0-17p13p0-17p13p0-15-||--12--------|
B---------------------------------------------------------------------||-----------|
G--------------------------------------------------------------------*||-----------|
D--------------------------------------------------------------------*||-----------|
A---------------------------------------------------------------------||-----------|
E---------------------------------------------------------------------||-----------|
Rhythm:
  w = whole note            W = dotted whole
  h = half note             H = dotted half
  q = quarter note          Q = dotted quarter
  e = eighth note           E = dotted eighth
  s = sixteenth note        S = dotted sixteenth
  t = 32nd note             T = dotted 32nd
  x = 64th note             X = dotted 64th
  ^ = triplet
Comments