Megadeth - Kill The King Chords & Tabs

 

Kill The King Chords & Tabs

Megadeth Chords & Tabs

Version: 4 Type: Tab 0 ratings
1 star 2 stars 3 stars 4 stars 5 stars
comments

Kill The King Tab

   
-------------------------------------------------------------------------------
			     KILL THE KING - Megadeth
-------------------------------------------------------------------------------
Tabbed by: RUSTDOGG666
Email:  motionlessz@cox.net

Tuning: Standard (E, A, D, G, B, E)

Intro and Verses:

  Play 24 times
e|--------------|
B|--------------|
G|--------------|
D|--2-----------|
A|--2-----------|
E|--0-----------|

Prechorus:

e|-------------------------------------|
B|-------------------------------------|
G|-------------------------------------|
D|--11--10--11--10--2--11--10--11--10--|
A|--11--10--11--10--2--11--10--11--10--|
E|---9---8---9---8--0---9---8---9---8--|

Chorus:

e|-----------------------------|
B|-----------------------------|
G|-----------------------------|
D|--2--5--4--3--2--5--4--3--2--|
A|--2--5--4--3--2--5--4--3--2--|
E|--0--3--2--1--0--3--2--1--0--|
[ Tab from: http://www.guitartabs.cc/tabs/m/megadeth/kill_the_king_tab_ver_4.html ]
After Chorus 2nd time:  (listen to the song to do the strums right)

e|-----|
B|-----|
G|-----|
D|--2--|
A|--2--|
E|--0--|

Rhythm part of the guitar solo:

  Play 8 times
e|----------------|
B|----------------|
G|----------------|
D|--5--6--3--2----|
A|--5--6--3--2----|
E|--3--4--1--0----|

| /  slide up
| \  slide down
| h  hammer-on
| p  pull-off
| ~  vibrato
| +  harmonic
| x  Mute note

===============================================================================

Sequence:
Intro and verses-Prechorus-Chorus-Intro and verses(play about 8 times
-Prechorus-Chorus-After Chorus 2nd time-Rhythm part of guitar solo-Chorus(repeat
to end).

This is the rhythm guitar tabs. I did not include the solos because I don't care
to play them. You can find other tabs that have the solo if you really want to
play that. Or just do what I do. Play the rhythm guitar parts and hire another
guitar player to play the lead parts for your band.

This is the easiest song by Megadeth to play. If you can't play it, then find an
easier band to play than this.
Comments