Megadeth - Insomnia Chords & Tabs

 

Insomnia Chords & Tabs

Megadeth Chords & Tabs

Version: 5 Type: Tab 0 ratings
1 star 2 stars 3 stars 4 stars 5 stars
comments

Insomnia Tab

Megadeth
"Risk"
Insomnia

Explanations:  h - hammer on
               b - bend
               p - pull off

  Intro (violin)
     S
e ---------------------------------------------|
B ---------------------------------------------|
D ---------------------------------------------|
G --\7---8-5-7------8p7p5--8p7p5---8p7p5-7-----|
A ---------------------------------------------|
E ---------------------------------------------|


   (Sitar)

e --------------------------------|
B --------------------------------|
G --2--2-3-0-2--------2--2-3-0-2--|
D --------------------------------|
A --------------------------------|
E --------------------------------|


   Main Rhythm guitar 1

e ---------------        -----------------------|
B ---------------        -----------------------|
G ---9--9-10-7-9-        -----------------------|
D ---7--7-8--5-7- X3     ---5---4-3-------------|
A ---------------        ---3---2-1-------------|
E ---------------        -----------------------|

  " I'm running in quicksand...


  Guitar solo during the main rhythm

e ---17--17-18-15-17-----|
B -----------------------|
G -----------------------|
D -----------------------|
A -----------------------|
E -----------------------|

Chorus
[ Tab from: http://www.guitartabs.cc/tabs/m/megadeth/insomnia_tab_ver_5.html ]
e --------------------------------------|
B --------------------------------------|
G --------------------------------------|
D ---2---4---5---7----------------------| X2
A ---0---2---3---5----------------------|
E --------------------------------------|

      Insomnia...   My swollen bloodshot eyes


    3rd time like this

                  s
e -----------------------------------------|
B -----------------------------------------|
G -----------------------------------------|
D ---2---4---5---5\7--7\5--4-4--3-3-3------|
A ---0---2---3---3\5--5\3--2-2--1-1-1------|
E -----------------------------------------|
              Somebody turn out the lights


e ---------------        -----------------------|
B ---------------        -----------------------|
G ---9--9-10-7-9-        -----------------------|
D ---7--7-8--5-7- X3     ---5---4-3-------------|
A ---------------        ---3---2-1-------------|
E ---------------        -----------------------|

  I,i,i     I Can't Sleep...

Bridge/Solo
-----------

e -------------------------------------------------|
B -------------------------------------------------|
G -------------------------------------------------|
D -------------------------------------------------| X3
A -------------------------------------------------|
E -0--1--2--3--0--4--5--6--0--7--8--9--0--10-11-12-|

e -------------------------------||
B -------------------------------||
G -------------------------------||
D -------------------------------||
A -------------------------------||
E --12-11-10-9-8-7-6-5-4-3-2-1-0-||
Comments