Megadeth - In My Darkest Hour Chords & Tabs

 

In My Darkest Hour Chords & Tabs

Megadeth Chords & Tabs

Version: 2 Type: Tab 0 ratings
1 star 2 stars 3 stars 4 stars 5 stars
comments

In My Darkest Hour Tab

   
Megadeth
In my Darkest Hour
thanx`s for the lessons Jeff Young From Dayton,oh
u rock. tim kilpatrick

Gtr I (E A D G B E) - 'Dave'
Gtr II (E A D G B E) - 'Jeff'
Gtr III (E A D G B E) - 'Dave(Acoustic)'

   Intro
    Q=120
   4/4
    Gtr III
||------------0-----|-----------0-------|
||o---------0---0---|---------0---0-----|
||--------7-------7-|-------7-----------|
||------5-----------|-----5-------------|
||o---9-------------|--9----------------|
||--0---------------|-------------------|
|
|   Gtr II
|                                   PM|
||------------------|-------------------|
||o-----------------|-------------------|
||------------------|-------------------|
||--9---------------|-(9)---------------|
||o-7---------------|-(7)---------------|
||--0---------------|-(0)-----------0-0-|


  Gtr I
|-----------------|--------------------||
|-----------------|-------------------o||
|-----------------|--------------------||
|-2-0-4-0-2-0-----|-------------0-4-0--||
|-------------2-0-|---------0-2-------o||
|-----------------|--3--2-3------------||
|
|-----------------|--------------------||
|-----------------|-------------------o||
|-----------------|--------------------||
|-2---------------|-(2)----------------||
|-2---------------|-(2)---------------o||
|-0---------------|-(0)----------------||


  Gtr III
|-----------0-------|---------5---------|
|---------0----0----|-----------5-------|
|-------7-----------|-------7------7----|
|-----5-------------|-5---5-------------|
|---9-------------9-|---9---------------|
|-0-----------------|-------------------|
|
|                 PM                  PM
|-------------------|-------------------|
|-------------------|-------------------|
|-------------------|-------------------|
|-9-----------(9)-4-|-5-----------(5)-5-|
|-7-----------(7)-2-|-3-----------(3)-3-|
|-0-----------(0)---|-------------------|


|-----------9----------|-----------------|
|-------------10-------|-----------------|
|---------9-------9----|-------7---------|
|------11--------------|-5---5---2-0-----|
|---12-----------------|---9---------3-2-|
|-9--------------------|-----------------|
|
|                    PM
|----------------------|-----------------|
|----------------------|-----------------|
|----------------------|-----------------|
|-7--------------(7)-7-|-5---------------|
|-4--------------(4)-4-|-3-----3-3-2-0---|
|----------------------|---------------3-|


|-----------0-------|---------5---------|
|---------0----0----|-----------5-------|
|-------7-----------|-------7------7----|
|-----5-------------|-5---5-------------|
|---9-------------9-|---9---------------|
|-0-----------------|-------------------|
|
|                 PM                  PM
|-------------------|-------------------|
|-------------------|-------------------|
|-------------------|-------------------|
|-9-----------(9)-4-|-5-----------(5)-5-|
|-7-----------(7)-2-|-3-----------(3)-3-|
|-0-----------(0)---|-------------------|


|-----------9----------|-----------------|
|-------------10-------|-----------------|
|---------9-------9----|-------7---------|
|------11--------------|-5---5---2-0-----|
|---12-----------------|---9---------3-2-|
|-9--------------------|-----------------|
|
|                    PM
|----------------------|-----------------|
|----------------------|-----------------|
|----------------------|-----------------|
|-7--------------(7)-7-|-5---------------|
|-4--------------(4)-4-|-3-----3-3-2-0---|
|----------------------|---------------3-|


  Gtr II
|--------------|--------------|--------------|--------------|
|--------------|--------------|--------------|--------------|
|--------------|--------------|--------------|--------------|
|-2------------|-3------------|-2------------|-3------------|
|-2----3-2-0---|-3----3-2-0---|-2----3-2-0---|-3----3-2-0---|
|-0----------3-|-1----------3-|-0----------3-|-1----------3-|
|
| Gtr I
|--------------|--------------|--------------|--------------|
|--------------|--------------|--------------|--------------|
|--------------|--------------|--------------|--------------|
|-2----2-0-----|-3----2-0-----|-2----2-0-----|-3----2-0-----|
|-2--------3-2-|-3--------3-2-|-2--------3-2-|-3--------3-2-|
|-0------------|-1------------|-0------------|-1------------|


 Pre-Verse
  Gtrs I, II
     PM--|    PM--|        PM--|    PM--|        PM--|    PM--|
|-------------------||---------------------||-------------------|
|-------------------||o-------------------o||-------------------|
|-------------------||---------------------||-------------------|
|-2--------2--------||--2--------2---------||-2--------2--------|
|-2--------2--------||o-2--------2--------o||-2--------2--------|
|-0--0-0-0-0--0-0-0-||--0--0-0-0-0--0-0-0--||-0--0-0-0-0--0-0-0-|


    Gtr II
                                                 3x
||--------------------|-3-2-1-3-2-1--------------||-------------------|
||o-------------------|-------------5-4-3-2-----o||-------------------|
||--------------------|---------------------5-4--||-------------------|
||--------------------|--------------------------||-------------------|
||o-------------------|-------------------------o||-------------------|
||--------------------|--------------------------||-------------------|
|
|   Gtr I
|      PM--|    PM--|                                  PM--|    PM--|
|                                                3x
||--------------------|-3-2-1--------------------||-------------------|
||o-------------------|-------5-4-3-2-----------o||-------------------|
||--------------------|---------------5-4-3-2-1--||-------------------|
||--2-----------------|--------------------------||-2-----------------|
||o-2--------5--------|-------------------------o||-2--------5--------|
||--0--0-0-0-3--3-3-3-|--------------------------||-0--0-0-0-3--3-3-3-|


                             Verse
|-3-2-1-3-2-1-------------||---------------------|--------------------|
|-------------5-4-3-2-----||o--------------------|--------------------|
|---------------------5-4-||---------------------|--------------------|
|-------------------------||---------------------|--------------------|
|-------------------------||o--------------------|--------------------|
|-------------------------||---------------------|--------------------|
|
|                             Gtrs I, II
|                                PM--|    PM|         PM--|
|-3-2-1-------------------||---------------------|--------------------|
|-------5-4-3-2-----------||o--------------------|--------------------|
|---------------5-4-3-2-1-||---------------------|--------------------|
|-------------------------||--2--------2------4/-|-5--------5------0--|
|-------------------------||o-2--------2------2/-|-3--------3----2----|
|-------------------------||--0--0-0-0-0--0-0----|----0-0-0----0------|


  Gtrs I, II
     PM--|    PM|         PM--|               PM--|
|--------------------|-------------------|--------------------|
|--------------------|-------------------|--------------------|
|--------------------|-------------------|--------------------|
|-2--------2------4/-|-5--------5------0-|-2--------2------8\-|
|-2--------2------2/-|-3--------3----2---|-2--------2----7-6\-|
|-0--0-0-0-0--0-0----|----0-0-0----0-----|-0--0-0-0-0--0------|


     PM--|    PM           PM--|    PM--|      PM--|
|---------------------|-------------------|--------------------||
|---------------------|-------------------|-------------------o||
|---------------------|-------------------|--------------------||
|-7--------7----9-(9)-|-4--------4--------|----------4---------||
|-5--------5----7-(7)-|-2--------2--------|-5----0-1-2--------o||
|----0-0-0----0-------|----0-0-0----0-0-2-|-3--0--------0-3-2--||


       PM--|    PM|         PM------|                        PM--|    PM--|
||---------------------|-------------------------------||-------------------|
||o--------------------|------------------------------o||-------------------|
||---------------------|-------------------------------||-2--------2--------|
||--2--------2------4/-|-5--------5---4-2h4p2p0--------||-2--------2--------|
||o-2--------2------2/-|-3------3---3-----------4-(4)-o||-0--0-0-0-0--0-3-0-|
||--0--0-0-0-0--0-0----|----0-0------------------------||-------------------|


     PM--|   PM                       PM--|   PM
|--------------------------------|--------------------------------|
|--------------------------------|--------------------------------|
|----------4---2-0h2p0-(0)-------|-2--------4---2-0h2p0-(0)-------|
|-4------------------------4-(4)-|-2------------------------4-(4)-|
|-2--0-0-2---2-------------------|-0--0-0-0---0-------------------|
|--------------------------------|--------------------------------|


  PM----------------------------------|            PM--|    PM|
|-------------------------|-------------------|--------------------|
|-------------------------|-------------------|--------------------|
|-------------------------|-------------------|--------------------|
|-------------------------|-------------7-3-2-|-2--------2------4/-|
|-5-5-5-5-5-5-5-5-5-5-5-5-|-5-5-5-5-5-5-5-1-0-|-2--------2------2/-|
|-------------------------|-------------------|-0--0-0-0-0--0-0----|


     PM--|    PM|         PM--|    PM|         PM--|    PM--|
|--------------------|--------------------|-------------------|
|--------------------|--------------------|-------------------|
|--------------------|--------------------|-------------------|
|-5--------5------5/-|-7--------7------7\-|-5--------5--------|
|-3--------3------3/-|-4--------4------4\-|-3--------3--------|
|----0-0-0----0-0----|----0-0-0----0-0----|----0-0-0----0-0-0-|


     PM--|    PM|         PM--|    PM|         PM--|    PM|
|--------------------|--------------------|--------------------|
|--------------------|--------------------|--------------------|
|--------------------|--------------------|--------------------|
|-2--------2------4/-|-5--------5------5/-|-7--------7------7\-|
|-2--------2------2/-|-3--------3------3/-|-4--------4------4\-|
|-0--0-0-0-0--0-0----|----0-0-0----0-0----|----0-0-0----0-0----|


                       Interlude
     PM--|    PM--------------------|               PM----------|
|-------------------||----------------------------------------------|
|-------------------||o---------------------------------------------|
|-------------------||----------------------------------------------|
|-5--------5--------||----------------------------------------------|
|-3--------3----2-5-||o-----------------------5---------------------|
|----0-0-0----0-----||--0-(0)-0-0-0-(0)-3-5-6---6-5-0-(0)-0-0-0-(0)-|


                     4x
|--------------------||
|-------------------o||
|--------------------||
|--------------------||
|-------5-----8-7-5-o||
|-3-5-6---6-5-6-5-3--||


 Verse
     PM--|    PM--|      PM--|    PM|         PM--|    PM|
|-------------------|--------------------|--------------------|
|-------------------|--------------------|--------------------|
|-------------------|--------------------|--------------------|
|-2--------2--------|-5--------5------5/-|-7--------7------7\-|
|-2--------2------2-|-3--------3------3/-|-4--------4------4\-|
|-0--0-0-0-0--0-0---|----0-0-0----0-0----|----0-0-0----0-0----|


     PM--|    PM--|      PM--|    PM|         PM--|    PM|
|-------------------|--------------------|--------------------|
|-------------------|--------------------|--------------------|
|-------------------|--------------------|--------------------|
|-5--------5--------|-2--------2------4/-|-5--------5------5/-|
|-3--------3--------|-2--------2------2/-|-3--------3------3/-|
|----0-0-0----0-0-0-|-0--0-0-0-0--0-0----|----0-0-0----0-0----|


  Gtr II
                                   PM--|           PM--|       PM|
|--------------------|-------------------||----------------------------|
|--------------------|-------------------||o---------------------------|
|--------------------|-------------------||----------------------------|
|--------------------|-------------------||--2-----------2---------4/--|
|--------------------|-------------------||o-2-----------2---------2/--|
|--------------------|-------------0-0-0-||--0-----0-0-0-0-----0-0-----|
|
| Gtr I
|    PM--|    PM|         PM--|
|--------------------|-------------------||----------------------------|
|--------------------|-------------------||o---------------------------|
|--------------------|-------------------||----------------------------|
|-7--------7------7\-|-5--------5----0h2-||--------2-0-2-------2-0-2---|
|-4--------4------4\-|-3--------3--------||o-2-----------2-------------|
|----0-0-0----0-0----|----0-0-0----------||----3-0---------3-0---------|


        PM--|       PM|            PM--|       PM|
|--------------------------|--------------------------|
|--------------------------|--------------------------|
|--------------------------|--------------------------|
|-5-----------5---------5/-|-7-----------7---------7\-|
|-3-----------3---------3/-|-4-----------4---------4\-|
|-------0-0-0-------0-0----|-------0-0-0-------0-0----|
|
|--------------------------|--------------------------|
|--------------------------|--------------------------|
|--------------------------|--------------------------|
|-------2-0-2-------2-0-2--|-------2-0-2-------2-0-2--|
|-3-----------3------------|-4-----------4------------|
|---3-0---------3-0--------|---3-0---------3-0--------|


        PM--|       PM--|
|---------------------------||
|--------------------------o||
|---------------------------||
|-5-----------5-------------||
|-3-----------3------------o||
|-------0-0-0-------0-0-0---||
|
|---------------------------||
|--------------------------o||
|---------------------------||
|-------2-0-2-------2-0-2---||
|-3-----------3------------o||
|---3-0---------3-0---------||


  Gtrs I, II
                                   PM--|
|---------------------|----------------------------------|
|---------------------|----------------------------------|
|---------------------|----------------------------------|
|-2----(2)--(2)-(2)-4-|-5--(5)-(5)---5---4-2h4p2p0-------|
|-2----(2)--(2)-(2)-2-|-3--(3)-(3)-3---3-----------4-(4)-|
|-0----(0)--(0)-(0)---|----------------------------------|


     PM------------|
|-----------------------|
|-----------------------|
|-----------------------|
|-2------------------4--|
|-2------------------2--|
|-0--0-0-0-0-0-0-0-0----|


     PM------|
|------------------------------|---------------------|
|------------------------------|---------------------|
|------------------------------|---------------------|
|-5--------5---4-2h4p2-0-------|-2----(2)--(2)-(2)-4-|
|-3--3-3-3---3-----------4-(4)-|-2----(2)--(2)-(2)-2-|
|------------------------------|-0----(0)--(0)-(0)---|


             PM--|
|----------------------------------|
|----------------------------------|
|----------------------------------|
|-5--(5)-(5)---5---4-2h4p2p0-------|
|-3--(3)-(3)-3---3-----------4-(4)-|
|----------------------------------|


                                                                        Faster Q=180
                                                 9/8
                    PM--------------------------------------|
|---------------------|-------------------------|------------------------------|
|---------------------|-------------------------|------------------------------|
|---------------------|-------------------------|------------------------------|
|-7----(7)--(7)-(7)---|-------------------------|-------------7-3-2-(2)-2-(2)--|
|-4----(4)--(4)-(4)-5-|-5-5-5-5-5-5-5-5-5-5-5-5-|-5-5-5-5-5-5-5-1-0-(0)-2-(2)--|
|---------------------|-------------------------|-----------------------0-(0)--|


   Breakdown
   4/4
    Gtr II
||---------------------------|-----------------------------|
||o--------------------------|-----------------------------|
||---------------------------|-----------------------------|
||---------------------------|-----------------------------|
||o--2---------------------3-|-(3)-3---------------------4-|
||---0---------------------1-|-(1)-1---------------------2-|
|
|   Gtr I
||---------------------------|-----------------------------|
||o--------------------------|-----------------------------|
||---------------------------|-----------------------------|
||-----------5-7p6p5---------|-------------5-7p6p5---------|
||o----5h6h7---------7p6p5---|-------5h6h7---------7p6p5---|
||---------------------------|-----------------------------|


|-----------------------------|
|-----------------------------|
|-----------------------------|
|-----------------------------|
|-(4)-4---------------------5-|
|-(2)-2---------------------3-|
|
|-----------------------------|
|-----------------------------|
|-----------------------------|
|-------------5-7p6p5---------|
|-------5h6h7---------7p6p5---|
|-----------------------------|


                                 Verse
|------------------------------||--------------------|
|-----------------------------o||--------------------|
|------------------------------||--------------------|
|---------------------------2--||-(2)----------------|
|-(5)-5---------------------2-o||-(2)----------------|
|-(3)-3---------------------0--||-(0)----------------|
|
|                                     PM--------|
|------------------------------||--------------------|
|-----------------------------o||--------------------|
|------------------------------||--------------------|
|-------------5-7p6p5----------||--------------------|
|-------5h6h7---------7p6p5---o||-----------------3--|
|------------------------------||-----0-0-0-0-0-0-1--|


  Gtr I
      PM--------|         PM--------|
|-------------------|-------------------|
|-------------------|-------------------|
|-------------------|-------------------|
|-------------------|-------------------|
|-(3)-------------4-|-(4)-------------5-|
|-(1)-1-1-1-1-1-1-2-|-(2)-2-2-2-2-2-2-3-|


      PM--------|         PM--------|
|-------------------|-------------------|
|-------------------|-------------------|
|-------------------|-------------------|
|-------------------|-------------------|
|-(5)-------------2-|-(2)-------------3-|
|-(3)-3-3-3-3-3-3-0-|-(0)-0-0-0-0-0-0-1-|


  Gtr II
|-------------------|-------------------|-----------------------|
|-------------------|-------------------|-----------------------|
|-------------------|-------------------|-----------------------|
|-------------------|-------------------|-----------------------|
|-------------------|-------------------|------------------2----|
|-------------------|-------------------|------------------0----|
|
| Gtr I
|     PM--------|         PM--------|         PM--------|
|-------------------|-------------------|-----------------17b18r|
|-------------------|-------------------|-----------------------|
|-------------------|-------------------|-----------------------|
|-------------------|-------------------|-----------------------|
|-(3)-------------4-|-(4)-------------5-|-(5)-------------------|
|-(1)-1-1-1-1-1-1-2-|-(2)-2-2-2-2-2-2-3-|-(3)-3-3-3-3-3-3-------|


 Guitar Solo 1
       PM---------------------|
|---------------------------------------------|
|---------------------------------------------|
|---------------------------------------------|
|---------------------------------------------|
|--(2)-------------------------------3--------|
|--(0)-0--0-----0-----0-----0--0-----1--------|
|
|-(17)---12h17p12----12----12-----------------|
|-----------------15----15----15p12-------12--|
|-----------------------------------14b20-----|
|---------------------------------------------|
|---------------------------------------------|
|---------------------------------------------|


          PM-----------------------|
|---------------------------------------------------|
|---------------------------------------------------|
|---------------------------------------------------|
|---------------------------------------------------|
|-(3)------------------------------------------4----|
|-(1)-----1-----1-----1--1----1-----1----------2----|
|
|-12------------------------------------------------|
|-----15p12h15p12---------------------12-(12)-------|
|-----------------14-12-15p14p==12-14---------15p14p|
|---------------------------------------------------|
|---------------------------------------------------|
|---------------------------------------------------|


         PM-----------------------------|
|------------------------------------------------|
|------------------------------------------------|
|------------------------------------------------|
|------------------------------------------------|
|-(4)------------------------------------------5-|
|-(2)----2--2--------2-------2-----2-----2-----3-|
|
|                                              ~~
|------------------------------------------------|
|----------------12h14p12------------------------|
|-12h14p12-14h15----------0-15-14-12-14-15-14-12-|
|------------------------------------------------|
|------------------------------------------------|
|------------------------------------------------|


        PM------------------------------------|
|--------------------------------------------------------|
|--------------------------------------------------------|
|--------------------------------------------------------|
|--------------------------------------------------------|
|--(5)----------------------------------------------2----|
|--(3)--3--------3--------3--------3--3--------3----0----|
|
|   ~~~~
|--------------------------------------------------------|
|--------------------------------------------------------|
|-(12)---------------------------------------------------|
|------14-14-13-12-12-13-14-14-13-12-13-13-13-14-13---12-|
|--------------------------------------------------------|
|--------------------------------------------------------|


           PM--------------------------|
|---------------------------------------------------|
|---------------------------------------------------|
|---------------------------------------------------|
|---------------------------------------------------|
|-(2)-----------------------------------------3-----|
|-(0)------0------0---0-----0-----0-----0-----1-----|
|
|---------------------------------------------------|
|-----------------------------------------------12--|
|------------13-(13)-13-13-14-14p12----12-14h15-----|
|-12b13-----------------------------14--------------|
|-------14------------------------------------------|
|---------------------------------------------------|


         PM------------------------------|
|-------------------------------------------------------|
|-------------------------------------------------------|
|-------------------------------------------------------|
|-------------------------------------------------------|
|-(3)-------------------------------------------4-------|
|-(1)----1-----1-----1-----1--------1-----1-----2-------|
|
|-------------12-------------------12h15p12-12----------|
|-14p12-12-15----15p12----12-15b21-------------12h15-15-|
|----------------------15-------------------------------|
|-------------------------------------------------------|
|-------------------------------------------------------|
|-------------------------------------------------------|


         PM-------------------------|
|------------------------------------------------|
|------------------------------------------------|
|------------------------------------------------|
|------------------------------------------------|
|-(4)--------------------------------------5-----|
|-(2)----2-----2----2-----2-----2----2-----3-----|
|
|-12---------------------12h15p12---15-12-15-17--|
|-----15p==12----12---15----------0--------------|
|-------------14---------------------------------|
|------------------------------------------------|
|------------------------------------------------|
|------------------------------------------------|


        PM---------------------------|
|-------------------------------------------------|
|-------------------------------------------------|
|-------------------------------------------------|
|-------------------------------------------------|
|-(5)---------------------------------------2-----|
|-(3)---3-----3-----3-----3-----3-----3-----0-----|
|
|                                           ~~~~~~~
|-15p12------------12-12-15h17-------12-12-17b21==|
|---------15-12h15-------------12h15--------------|
|-------------------------------------------------|
|-------------------------------------------------|
|-------------------------------------------------|
|-------------------------------------------------|


 Chorus
       PM----|             PM--------|
|-------------------|--------------------|
|-------------------|--------------------|
|-------------------|--------------------|
|--------------4--5-|--(5)-------------2-|
|--(2)---------2--3-|--(3)-3-3-3-3-2-1-0-|
|--(0)-0-0-0-0------|--------------------|
|
|~~~~~~~~~~~~~~~~~~~~~~~~~~~
|-(17)--------------|-(17)r==============|
|-------------------|--------------------|
|-------------------|--------------------|
|-------------------|--------------------|
|-------------------|--------------------|
|-------------------|--------------------|


                           Gtr II
        PM----|            PM--------|
|--------------------|-------------------|
|--------------------|-------------------|
|--------------------|-------------------|
|--(2)----------5--4-|-(4)-------------9-|
|--(0)--0-0-0-0-3--2-|-(2)-2-2-2-2-5-6-7-|
|--------------------|-------------------|
|
|                          Gtr I
|                          PM--------|
|-(17)r--------------|-------------------|
|--------------------|-------------------|
|--------------------|-------------------|
|--------------------|-----------------9-|
|--------------------|-----2-2-2-2-5-6-7-|
|--------------------|-------------------|


|-------------------|-------------------|
|-------------------|-------------------|
|-------------------|-------------------|
|-------------------|-------------------|
|-------------------|-------------------|
|-------------------|-------------------|
|
| Gtrs I, II
|     PM--------|         PM--------|
|-------------------|-------------------|
|-------------------|-------------------|
|-------------------|-------------------|
|-(9)-------------5-|-(5)-------------2-|
|-(7)-7-7-7-7-6-5-3-|-(3)-3-3-3-3-2-1-0-|
|-------------------|-------------------|


  Gtrs I, II
      PM----|            PM--------|         PM----|            PM--------|
|------------------|-------------------|------------------|-------------------|
|------------------|-------------------|------------------|-------------------|
|------------------|-------------------|------------------|-------------------|
|-(2)---------5--4-|-(4)-------------2-|-(2)---------4--5-|-(5)-------------2-|
|-(0)-0-0-0-0-3--2-|-(2)-2-2-2-2-1-0-2-|-(2)---------2--3-|-(3)-3-3-3-3-2-1-0-|
|------------------|-----------------0-|-(0)-0-0-0-0------|-------------------|


      PM----|            PM--------|         PM--------|         PM--------|
|------------------|-------------------|-------------------|-------------------|
|------------------|-------------------|-------------------|-------------------|
|------------------|-------------------|-------------------|-------------------|
|-(2)---------5--4-|-(4)-------------9-|-(9)-------------5-|-(5)-------------2-|
|-(0)-0-0-0-0-3--2-|-(2)-2-2-2-2-5-6-7-|-(7)-7-7-7-7-6-5-3-|-(3)-3-3-3-3-2-1-0-|
|------------------|-------------------|-------------------|-------------------|


  Gtr II
|------------------|-------------------|
|------------------|-------------------|
|------------------|-------------------|
|------------------|-------------------|
|------------------|-------------------|
|------------------|-------------------|
|
| Gtr I
|     PM----|            PM--------|
|------------------|-------------------|
|------------------|-------------------|
|------------------|-------------------|
|-(2)---------5--4-|-(4)-------------2-|
|-(0)-0-0-0-0-3--2-|-(2)-2-2-2-2-1-0-2-|
|------------------|-----------------0-|

[ Tab from: http://www.guitartabs.cc/tabs/m/megadeth/in_my_darkest_hour_tab_ver_2.html ]
|-----------------------------|------------------------------|
|---------15----(15)-(15)-----|---------15----(15)-(15)------|
|---------14b20-(14)-(14)r----|---------14b20-(14)-(14)r-----|
|-----------------------------|------------------------------|
|-----------------------------|------------------------------|
|-----------------------------|------------------------------|
|
|     PM--------|                   PM-------------------|
|-----------------------------|------------------------------|
|-----------------------------|------------------------------|
|-----------------------------|------------------------------|
|-(2)------------------4----5-|-(5)------------------------2-|
|-(2)------------------2----3-|-(3)-3-3--3------3----2---1-0-|
|-(0)-0-0--0------0-----------|------------------------------|


|------------------------------|-----------------------|
|---------15----(15)-(15)---14-|-(14)-------14\-----15-|
|---------14b20-(14)-(14)r--14-|-(14)-------14\-----16-|
|------------------------------|-----------------------|
|------------------------------|-----------------------|
|------------------------------|-----------------------|
|
|     PM--------|                     PM----------|
|------------------------------|-----------------------|
|------------------------------|-----------------------|
|------------------------------|-----------------------|
|-(2)------------------5-----4-|--(4)----------------9-|
|-(0)-0-0--0------0----3-----2-|--(2)-2-2-2--2--5-6--7-|
|------------------------------|-----------------------|


|-------------------|-------------------|
|-------------------|-------------------|
|-------------------|-------------------|
|-------------------|-------------------|
|-------------------|-------------------|
|-------------------|-------------------|
|
|     PM--------|         PM--------|
|-------------------|-------------------|
|-------------------|-------------------|
|-------------------|-------------------|
|-(9)-------------5-|-(5)-------------2-|
|-(7)-7-7-7-7-6-5-3-|-(3)-3-3-3-3-2-1-0-|
|-------------------|-------------------|


       \3.5/         \2/    \1/      \1/    \1/    \1/   \1/   \1/
|-----19-----(19)---18-----17-----|-14-----12-----10-----9-----7-----|
|---------------------------------|----------------------------------|
|---------------------------------|----------------------------------|
|---------------------------------|----------------------------------|
|---------------------------------|----------------------------------|
|---------------------------------|----------------------------------|
|
|      PM-----------|                    PM------------------|
|---------------------------------|----------------------------------|
|---------------------------------|----------------------------------|
|---------------------------------|----------------------------------|
|-(2)--------------------5------4-|-(4)----------------------------2-|
|-(0)--0-------0--0--0---3------2-|-(2)--2--2---2--2---1-----0-----2-|
|---------------------------------|--------------------------------0-|


   \3/
|--9-----(9)----------|-------------------|
|---------------------|-------------------|
|---------------------|-------------------|
|---------------------|-------------------|
|---------------------|-------------------|
|---------------------|-------------------|
|
|      PM------|            PM--------|
|---------------------|-------------------|
|---------------------|-------------------|
|---------------------|-------------------|
|-(2)------------4--5-|-(5)-------------2-|
|-(2)------------2--3-|-(3)-3-3-3-3-2-1-0-|
|-(0)--0--0--0-0------|-------------------|


  Gtr I
      PM----|            PM--------|         PM--------|         PM--------|
|------------------|-------------------|-------------------|-------------------|
|------------------|-------------------|-------------------|-------------------|
|------------------|-------------------|-------------------|-------------------|
|-(2)---------5--4-|-(4)-------------9-|-(9)-------------5-|-(5)-------------2-|
|-(0)-0-0-0-0-3--2-|-(2)-2-2-2-2-5-6-7-|-(7)-7-7-7-7-6-5-3-|-(3)-3-3-3-3-2-1-0-|
|------------------|-------------------|-------------------|-------------------|


                    Guitar Solo 2
  Gtr II
   <
|------------------|----------------------------|
|-12---------------|----------------------------|
|------------------|----------------------------|
|------------------|----------------------------|
|------------------|----------------------------|
|------------------|---------------3h4h5p4p3h4h=|
|
| Gtr I
|     PM----|              PM--|   PM
|------------------|----------------------------|
|------------------|----------------------------|
|------------------|----------------------------|
|-(2)---------5--4-|-(4)-4-------3-----2--------|
|-(0)-0-0-0-0-3--2-|-(2)-2-2-2-2-1-0---0--------|
|------------------|----------------------------|


|-----------------------------------------|----------------------------------|
|-----------------------------------------|---------------5h6h7-8h9h10p9p8h==|
|-----------------------------------------|-----5h6h7s9s7--------------------|
|-----------------------------5h6h7p6p5h6h|==7-------------------------------|
|-----3h4h5p4p3s5h6h7p6-5-6-7-------------|----------------------------------|
|--5--------------------------------------|----------------------------------|
|
|     PM----------------------|                 PM--------------|
|-----------------------------------------|----------------------------------|
|-----------------------------------------|----------------------------------|
|-----------------------------------------|----------------------------------|
|-(2)-----------------------------3-------|-(3)----------------------5-------|
|-(0)-0---0-----0-----0---0---0---1-------|-(1)-0---0-0-0-0-----0----3-------|
|-----------------------------------------|----------------------------------|


                   ~~~~~~~~~~~~~
|------------------------------|
|--9s=6h==8p5h6s8h10---(10)----|
|------------------------------|
|------------------------------|
|------------------------------|
|------------------------------|
|
|       PM-------------|
|------------------------------|
|------------------------------|
|------------------------------|
|-(5)-----------------------10-|
|-(3)---0-0---0-0----0---0---8-|
|------------------------------|


       \1.25___/0.75___\1.25____/       \0.25/
 ~~~~~~                ~~~~~~~~~~~~
|--------------------------------------22b26===|=(22)---------------|
|-(10)-8s=====12h=====15------(15)-------------|--------------------|
|----------------------------------------------|--------------------|
|----------------------------------------------|--------------------|
|----------------------------------------------|--------------------|
|----------------------------------------------|--------------------|
|
|      PM-----|                    PM--|              PM--------|
|----------------------------------------------|--------------------|
|----------------------------------------------|--------------------|
|----------------------------------------------|--------------------|
|-(10)-----------------9-------(9)------2------|--(2)-------------3-|
|--(8)-0-------0-------7-------(7)-0-0--0------|--(0)-0-0-0-0-0-0-1-|
|----------------------------------------------|--------------------|


       PM----------------------------------------
|-----------------------------------------------|
|-----------------------------------------------|
|-----------------------------------------------|
|-----------------------------------------------|
|-----15-15-15-17-17-17-15-15-14-14-12-12-10-10-|
|-----------------------------------------------|
|
|      PM---------------------------|
|-----------------------------------------------|
|-----------------------------------------------|
|-----------------------------------------------|
|-(3)--------------------------------------5----|
|-(1)--0-----0-----0-----0-----0-----0-----3----|
|-----------------------------------------------|


 -------------|          ~~~~~~~~~
|--------------------------|----------------------------|
|--------------------------|----------------------------|
|--------------------------|----------------------------|
|--------------------------|--------------------10-9h10-|
|--8--8-7-7-5-5-3-2--------|----------------------------|
|-------------------3-3--5-|--(5)--------5--(5)---------|
|
|       PM------------|           PM|        PM-|
|--------------------------|----------------------------|
|--------------------------|----------------------------|
|--------------------------|----------------------------|
|-(5)-------------------10-|-(10)-----9-(9)--------2----|
|-(3)---0---0---0-0-0-0--8-|--(8)-0-0-7-(7)--0---0-0----|
|--------------------------|----------------------------|


|----------------------------------------------------|
|----------------------------------------------------|
|--9--12p9------------9-12p9----------11-14p11-11----|
|----------10-10-9h10--------12-11-12-------------12-|
|----------------------------------------------------|
|----------------------------------------------------|
|
|        PM------------------------------|
|----------------------------------------------------|
|----------------------------------------------------|
|----------------------------------------------------|
|-(2)-------------------------------------------3----|
|-(0)----0-------0-------0----0-----0-----0-----1----|
|----------------------------------------------------|


|-------------------------------------------------|
|-------------------------------------------------|
|-----12-16p12-12-------12-16-17-14-------[17]----|
|-14--------------14-14-------------15p14---------|
|-------------------------------------------------|
|-------------------------------------------------|
|
|         PM---------------------------|
|-------------------------------------------------|
|-------------------------------------------------|
|-------------------------------------------------|
|-(3)------------------------------------------5--|
|-(1)-----0-----0-----0-----0-----0-----0------3--|
|-------------------------------------------------|


|---------------------------------|
|---------------------------------|
|-([17])-------([17])-------------|
|---------------------15-15-14----|
|---------------------------------|
|---------------------------------|
|
|        PM-----------------|
|---------------------------------|
|---------------------------------|
|---------------------------------|
|---(5)------------------------10-|
|---(3)--0-0-0----0----0-----0--8-|
|---------------------------------|


|------------------------------------|----------------------------------|
|------------------------------------|----------------------------------|
|------------------------------------|------------------------------9-9-|
|------------------14----15---[14]---|-([14])---------------9-10-12-----|
|--17----15---17---------------------|--------------8-10-12-------------|
|------------------------------------|----------------------------------|
|
|      PM---|          PM---|                 PM--------------|
|------------------------------------|----------------------------------|
|------------------------------------|----------------------------------|
|------------------------------------|----------------------------------|
|-(10)-----------9-(9)-------------2-|---(2)------------------------3---|
|--(8)-0----0----7-(7)-0----0------0-|---(0)--0-0-0-0-----0----0----1---|
|------------------------------------|----------------------------------|


   ~~~
|-----------------------------------|--------------------------------14-15-17s20b25-|
|-----------------------------------|--------------------12-13-16-17----------------|
|-12--------------------------10-12-|-12p=10----10-12-14----------------------------|
|--------------------10-12-14-------|--------14-------------------------------------|
|-----------10-12-14----------------|-----------------------------------------------|
|-----------------------------------|-----------------------------------------------|
|
|     PM----------------|                     PM------------------------|
|-----------------------------------|-----------------------------------------------|
|-----------------------------------|-----------------------------------------------|
|-----------------------------------|-----------------------------------------------|
|-(3)--------------------------5----|-(5)-------------------------------------10----|
|-(1)-0-0-0--0-----0-----0-----3----|-(3)-----0-----0--0-----0-----0-----0-----8----|
|-----------------------------------|-----------------------------------------------|


|-(20)r---20---19---17---------------|
|-------------------------20---17----|
|------------------------------------|
|------------------------------------|
|------------------------------------|
|------------------------------------|
|
|       PM---|          PM---|
|------------------------------------|
|------------------------------------|
|------------------------------------|
|-(10)------------9-(9)-----------2--|
|--(8)--0----0----7-(7)-0----0----0--|
|------------------------------------|


        PM----------------------|              PM----------------------|
|---------------------------------------|--------------------------------------|
|---------------------------------------|--------------------------------------|
|---------------------------------------|--------------------------------------|
|-------------------------------------3-|--(3)-------------------------------5-|
|-------0-----0-----0--0--0-----0-----1-|--(1)-0-----0-----0--0--0-----0-----3-|
|---------------------------------------|--------------------------------------|
|
| Gtr II
|---------------------------------------|--------------------------------------|
|-20b26r================================|=(20)---------------------------------|
|---------------------------------------|--------------------------------------|
|---------------------------------------|--------------------------------------|
|---------------------------------------|--------------------------------------|
|---------------------------------------|--------------------------------------|
|
| Gtr I
|---------------------------------------|--------------------------------------|
|---------------------------------------|--------------------------------------|
|---------------------------------------|--------------------------------------|
|-[7]-----[6]---[5]---------------------|--[7]---[6]---[5]---------------------|
|---------------------[7]---[6]---[5]---|--------------------[7]---[6]---[5]---|
|---------------------------------------|--------------------------------------|


         PM----------------------|               PM----|           PM----|
|-----------------------------------------|-----------------------------------------|
|-----------------------------------------|-----------------------------------------|
|-----------------------------------------|-----------------------------------------|
|-(5)----------------------------------10-|-(10)-------------9-(9)-------------2----|
|-(3)----0-----0-----0--0--0-----0------8-|--(8)-0-----0-----7-(7)-0-----0-----0----|
|-----------------------------------------|-----------------------------------------|
|
|-----------------------------------------|-----------------------------------------|
|-20b26===================================|=(20)r===================================|
|-----------------------------------------|-----------------------------------------|
|-----------------------------------------|-----------------------------------------|
|-----------------------------------------|-----------------------------------------|
|-----------------------------------------|-----------------------------------------|
|
|-----------------------------------------|-----------------------------------------|
|-----------------------------------------|-----------------------------------------|
|-----------------------------------------|--------------------[5]------------------|
|-[7]------[6]---[5]----------------------|--[7]---[5]---------------[7]---[5]------|
|----------------------[7]---[6]---[5]----|--------------[7]------------------------|
|-----------------------------------------|-----------------------------------------|


       PM----------------------|                 PM-----------------------|
|-----------------------------------------|---------------------------------------|
|-----------------------------------------|---------------------------------------|
|-----------------------------------------|---------------------------------------|
|--(2)----------------------------------3-|--(3)--------------------------------5-|
|--(0)-0-----0-----0--0--0------0-------1-|--(1)-0-----0-----0---0--0-----0-----3-|
|-----------------------------------------|---------------------------------------|
|
|                               \1/
|-----------------------------------------|---------------------------------------|
|-(20)-------------------------17---------|-(17)---------------(17)---------------|
|-----------------------------------------|---------------------------------------|
|-----------------------------------------|---------------------------------------|
|-----------------------------------------|---------------------------------------|
|-----------------------------------------|---------------------------------------|
|
|-----------------------------------------|---------------------------------------|
|-----------------------------------------|---------------------------------------|
|-----------------------------------------|---------------------------------------|
|--[7]---[9]---[8]------------------------|--[7]---[6]---[5]----------------------|
|--------------------[7]---[6]------[5]---|---------------------[7]---[6]---[5]---|
|-----------------------------------------|---------------------------------------|


      PM-------------------------|               PM----|            PM----|
|-----------------------------------------|------------------------------------------|
|-----------------------------------------|------------------------------------------|
|-----------------------------------------|------------------------------------------|
|-(5)----------------------------------10-|-(10)-------------9--(9)-------------2----|
|-(3)-0-----0-----0--0-----0-----0------8-|--(8)-0-----0-----7--(7)-0-----0-----0----|
|-----------------------------------------|------------------------------------------|
|
|                    \3.5/
|-------------------21--------------------|-(21)---------------(21)------------------|
|-----------------------------------------|------------------------------------------|
|-----------------------------------------|------------------------------------------|
|-----------------------------------------|------------------------------------------|
|-----------------------------------------|------------------------------------------|
|-----------------------------------------|------------------------------------------|
|
|-----------------------------------------|------------------------------------------|
|-----------------------------------------|------------------------------------------|
|-----------------------------------------|------------------------------------------|
|-[7]---[6]---[5]-------------------------|------------------------------------------|
|-------------------[7]------[6]---[5]----|--------------[5]----------------[5]------|
|-----------------------------------------|--[8]---[5]----------[8]---[5]------------|


      PM----------------------|             PM----------------------|
|-------------------------------------|-------------------------------------|
|-------------------------------------|-------------------------------------|
|-------------------------------------|-------------------------------------|
|-(2)-------------------------------3-|-(3)-------------------------------5-|
|-(0)-0-----0-----0--0--0-----0-----1-|-(1)-0-----0-----0--0--0-----0-----3-|
|-------------------------------------|-------------------------------------|
|
| Gtr I
|-------------------------------------|-------------------------------------|
|-------------------------------------|-------------------------------------|
|-------------------------------------|-------------------------------------|
|-[7]---[6]---[5]---------------------|-[7]---[6]---[5]---------------------|
|-------------------[7]---[6]---[5]---|-------------------[7]---[6]---[5]---|
|-------------------------------------|-------------------------------------|


      PM----------------------|               PM----|           PM----|
|--------------------------------------|-----------------------------------------|
|--------------------------------------|-----------------------------------------|
|--------------------------------------|-----------------------------------------|
|-(5)-------------------------------10-|-(10)-------------9-(9)-------------2----|
|-(3)-0-----0-----0--0--0-----0------8-|--(8)-0-----0-----7-(7)-0-----0-----0----|
|--------------------------------------|-----------------------------------------|
|
|--------------------------------------|-----------------------------------------|
|--------------------------------------|-----------------------------------------|
|--------------------------------------|--------------------[5]---[7]------------|
|-[7]---[6]---[5]----------------------|--[7]---[5]---------------------[5]------|
|-------------------[7]---[6]---[5]----|--------------[7]------------------------|
|--------------------------------------|-----------------------------------------|


      PM----------------------|             PM----------------------|
|-------------------------------------|-------------------------------------|
|-------------------------------------|-------------------------------------|
|-------------------------------------|-------------------------------------|
|-(2)-------------------------------3-|-(3)-------------------------------5-|
|-(0)-0-----0-----0--0--0-----0-----1-|-(1)-0-----0-----0--0--0-----0-----3-|
|-------------------------------------|-------------------------------------|
|
|-------------------------------------|-------------------------------------|
|-------------------------------------|-------------------------------------|
|-------------------------------------|-------------------------------------|
|-[7]---[6]---[5]---------------------|-[7]---[6]---[5]---------------------|
|-------------------[7]---[6]---[5]---|-------------------[7]---[6]---[5]---|
|-------------------------------------|-------------------------------------|


      PM----------------------|               PM----|           PM----|
|--------------------------------------|-----------------------------------------|
|--------------------------------------|-----------------------------------------|
|--------------------------------------|-----------------------------------------|
|-(5)-------------------------------10-|-(10)-------------9-(9)-------------2----|
|-(3)-0-----0-----0--0--0-----0------8-|--(8)-0-----0-----7-(7)-0-----0-----2----|
|--------------------------------------|------------------------------------0----|
|
|--------------------------------------|-----------------------------------------|
|--------------------------------------|-----------------------------------------|
|--------------------------------------|-----------------------------------------|
|-[7]---[6]---[5]----------------------|-----------------------------------------|
|-------------------[7]---[6]---[5]----|--------------[5]---------------[5]------|
|--------------------------------------|--[8]---[5]---------[8]---[5]------------|


          PM--------|         PM--------|
||----------------------|-------------------|
||o---------------------|-------------------|
||----------------------|-------------------|
||---(2)----------------|-------------------|
||o--(2)--------------3-|-(3)-------------4-|
||---(0)--0-0-0-0-0-0-1-|-(1)-1-1-1-1-1-1-2-|
|
|         PM--------|         PM--------|
||----------------------|-------------------|
||o---------------------|-------------------|
||----------------------|-------------------|
||----------------------|-------------------|
||o-([5])-------------3-|-(3)-------------4-|
||--------0-0-0-0-0-0-1-|-(1)-1-1-1-1-1-1-2-|


      PM--------|         PM--------|
|-------------------|---------------------||
|-------------------|--------------------o||
|-------------------|---------------------||
|-------------------|---------------------||
|-(4)-------------5-|-(5)-------------2--o||
|-(2)-2-2-2-2-2-2-3-|-(3)-3-3-3-3-3-3-0---||
|
|     PM--------|         PM--------|
|-------------------|---------------------||
|-------------------|--------------------o||
|-------------------|---------------------||
|-------------------|---------------------||
|-(4)-------------5-|-(5)-------------2--o||
|-(2)-2-2-2-2-2-2-3-|-(3)-3-3-3-3-3-3-0---||


  Gtr II
|-------------------|-------------------|
|-------5-5-5-5-----|-------6-6-6-6-6---|
|-------4-4-4-4-----|-------5-5-5-5-5---|
|-------------------|-------------------|
|-------------------|-------------------|
|-------------------|-------------------|
|
|     PM--------|         PM--------|
|-------------------|-------------------|
|-------------------|-------------------|
|-------------------|-------------------|
|-------------------|-------------------|
|-(2)-------------3-|-(3)-------------4-|
|-(0)-0-0-0-0-0-0-1-|-(1)-1-1-1-1-1-1-2-|


|---------------------|---------------------|
|-------7-7-7-7-7-7---|-------8-8-8-8-8-8---|
|-------6-6-6-6-6-6---|-------7-7-7-7-7-7---|
|---------------------|---------------------|
|---------------------|---------------------|
|---------------------|---------------------|
|
|     PM----------|         PM----------|
|---------------------|---------------------|
|---------------------|---------------------|
|---------------------|---------------------|
|---------------------|---------------------|
|-(4)---------------5-|-(5)---------------6-|
|-(2)-2-2-2---2-2-2-3-|-(3)-3-3---3-3-3-3-4-|


|---------------------|-----------------------|
|-------9-9-9-9-9-9---|-------10-10-10-10-----|
|-------8-8-8-8-8-8---|--------9--9--9--9-----|
|---------------------|-----------------------|
|---------------------|-----------------------|
|---------------------|-----------------------|
|
|     PM----------|         PM------------|
|---------------------|-----------------------|
|---------------------|-----------------------|
|---------------------|-----------------------|
|---------------------|-----------------------|
|-(6)---------------7-|-(7)-----------------8-|
|-(4)-4-4---4-4-4-4-5-|-(5)-5--5--5--5--5-5-6-|


                                       PM----|
|-------------------------|---------------------|
|-------11---(11)-11-11---|-------12------------|
|-------10---(10)-10-10---|-------11------------|
|-------------------------|---------------------|
|-------------------------|------------2---0----|
|-------------------------|--------------3---0--|
|
|     PM-------------|          PM---|
|-------------------------|---------------------|
|-------------------------|---------------------|
|-------------------------|---------------------|
|-------------------------|---------------------|
|-(8)-------------------9-|-(9)-----------------|
|-(6)-6--6-6---6---6--6-7-|-(7)-7--7-7----------|


   Outro
    Original Tempo Q=120
    Gtr III
||------------0-----|-----------0-------|
||o---------0---0---|---------0---0-----|
||--------7-------7-|-------7-----------|
||------5-----------|-----5-------------|
||o---9-------------|--9----------------|
||--0---------------|-------------------|
|
|   Gtr II
|                                   PM|
||------------------|-------------------|
||o-----------------|-------------------|
||------------------|-------------------|
||--9---------------|-(9)---------------|
||o-7---------------|-(7)-----------2-2-|
||--0---------------|-(0)-----------0-0-|


  Gtr I
                                        3x
|-----------------|---------------------||
|-----------------|--------------------o||
|-----------------|---------------------||
|-2-0-4-0-2-0-----|-------------0-4-0---||
|-------------2-0-|---------0-2--------o||
|-----------------|--3--2-3-------------||
|
|                                       3x
|-----------------|---------------------||
|-----------------|--------------------o||
|-----------------|---------------------||
|-2---------------|-(2)-----------------||
|-2---------------|-(2)----------------o||
|-0---------------|-(0)-----------------||


  Gtr II
|----------|------------|--------------*|
|----------|------------|--------------*|
|-9--------|-(9)--------|-9--(9)\------*|
|-9--------|-(9)--------|-9--(9)\------*|
|-7--------|-(7)--------|-7--(7)\------*|
|-0--------|-(0)--------|--------------*|
|
| Gtrs I, III
|----------|------------|-0--(0)-------*|
|-5--------|-(5)--------|-3--(3)-------*|
|-4--------|-(4)--------|-0--(0)-------*|
|-2--------|-(2)--------|-2--(2)-------*|
|-2--------|-(2)--------|-2--(2)-------*|
|-0--------|-(0)--------|-0--(0)-------*|



Comments