Megadeth - Hook In Mouth Chords & Tabs

 

Hook In Mouth Chords & Tabs

Megadeth Chords & Tabs

Version: 2 Type: Tab 0 ratings
1 star 2 stars 3 stars 4 stars 5 stars
comments

Hook In Mouth Tab

#----------------------------------PLEASE NOTE---------------------------------#
#This file is the author's own work and represents their interpretation of the #
#song. You may only use this file for private study, scholarship, or research. #
#------------------------------------------------------------------------------##
>From: L.Metcalfe@cm.cf.ac.uk (L Metcalfe)

____   ____                                                         ___   ____
 |Y\   /Y| ________ ________            ______   ________ _________ |YI   |Y|
 ||\\ //|| |>----<| |>----<|     /\     |>---<\  |>----<| |\-----/| |||   |||
 ||\\Y//|| ||T___\! ||T~~~\!    //\\    ||T~~\\\ ||T___\! |/~TYT~\| ||l___|||
 |||\Y/||| ||<-<]   |||  ___   ///\\\   |||  ||| ||<-<]      |||    ||<--->||
 ||| Y ||| ||l_____ ||l__|Y|  //<==>\\  ||l__/// ||l_____    |||MAT |||~~~|||
 |||   ||| |^----<| |^--->|| ///~~~~\\\ |^---[ Tab from: http://www.guitartabs.cc/tabs/m/megadeth/hook_in_mouth_tab_ver_2.html ]
(Guitar1)------------------------|
|--------------------------------|
|--------------------------------|
|--------------------------------|
|7--\----------------------------|
|--------------------------------|
|
|                                    ___3___  ___3___
|                                    |  T  |  |  T  |
|T P  P   T P  P   T P  P   T P  P   T P  P   T P  P
|19-15-12-20-15-12-19-15-12-20-15-12-19-15-12-20-15-12-|
|------------------------------------------------------|
|------------------------------------------------------|
|------------------------------------------------------|
|------------------------------------------------------|
|------------------------------------------------------|
                                     ___3___  ___3___
                                     |  T  |  |  T  |
 T P  P   T P  P   T P  P   T P  P   T P  P   T P  P
|18-14-12-19-14-12-18-14-12-19-14-12-18-14-12-19-14-12-|
|------------------------------------------------------|
|------------------------------------------------------|
|------------------------------------------------------|
|------------------------------------------------------|
|------------------------------------------------------|
                                     ___3___  ___3___
                                     |  T  |  |  T  |
 T P  P   T P  P   T P  P   T P  P   T P  P   T P  P
|17-13-10-18-13-10-17-13-10-18-13-10-17-13-10-18-13-10-|
|------------------------------------------------------|
|------------------------------------------------------|
|------------------------------------------------------|
|------------------------------------------------------|
|------------------------------------------------------|
                                     ___3___  ___3___
                                     |  T  |  |  T  |
 T P  P   T P  P   T P  P   T P  P   T P  P   T P  P
|16-12-10-17-12-10-16-12-10-17-12-10-16-12-10-17-12-10-|
|------------------------------------------------------|
|------------------------------------------------------|
|------------------------------------------------------|
|------------------------------------------------------|
|------------------------------------------------------|
                                     ___3___  ___3___
                                     |  T  |  |  T  |
 T P  P   T P  P   T P  P   T P  P   T P  P   T P  P
|15-11--8-16-11--8-15-11--8-16-11--8-15-11--8-16-11--8-|
|------------------------------------------------------|
|------------------------------------------------------|
|------------------------------------------------------|
|------------------------------------------------------|
|------------------------------------------------------|
                                     ___3___  ___3___
                                     |  T  |  |  T  |
 T P  P   T P  P   T P  P   T P  P   T P  P   T P  P
|14-10--8-15-10--8-14-10--8-15-10--8-14-10--8-15-10--8-|
|------------------------------------------------------|
|------------------------------------------------------|
|------------------------------------------------------|
|------------------------------------------------------|
|------------------------------------------------------|
                                     ___3___  ___3___
                                     |  T  |  |  T  |
 T P  P   T P  P   T P  P   T P  P   T P  P   T P  P
|13--9--6-14--9--6-13--9--6-14--9--6-13--9--6-14--9--6-|
|------------------------------------------------------|
|------------------------------------------------------|
|------------------------------------------------------|
|------------------------------------------------------|
|------------------------------------------------------|

                                     ___3___  ___3___
                                     |  T  |  |  T  |
 T P  P   T P  P   T P  P   T P  P   T P  P   T P  P
|12--8--6-13--8--6-12--8--6-13--8--6-12--8--6-13--8--6-|
|------------------------------------------------------|
|------------------------------------------------------|
|------------------------------------------------------|
|------------------------------------------------------|
|------------------------------------------------------|

Chorus:
-------

|--------------------------------|--------------------------------|
|--------------------------------|--------------------------------|
|12------------------------------|10------------------------------|
|12------------------------------|10------------------------------|
|10------------------------------|8-------------------------------|
|--------------------------------|--------------------------------|

|--------------------------------|--------------------------------|
|--------------------------------|--------------------------------|
|9-------------------------------|--------------------------------|
|9-------------------------------|--------------------------------|
|7-------------------------------|----------------5-h-7---7-h-8---|
|--------------------------------|--------------------------------|

|--------------------------------|--------------------------------|
|--------------------------------|--------------------------------|
|12------------------------------|10------------------------------|
|12------------------------------|10----------------------10------|
|10------------------------------|8---------------10------8-------|
|--------------------------------|----------------8---------------|

|--------------------------------|--------------------------------|
|--------------------------------|--------------------------------|
|9-------------------------------|--------------------------------|
|9-------------------------------|----10------9-------5-------2---|
|7-------------------------------|----10------9-------5-------2---|
|--------------------------------|----8-------7-------3-------0---|

|--------------------------------|--------------------------------|
|--------------------------------|--------------------------------|
|12------------------------------|10------------------------------|
|12------------------------------|10------------------------------|
|10------------------------------|8-------------------------------|
|--------------------------------|--------------------------------|

|--------------------------------|--------------------------------|
|--------------------------------|--------------------------------|
|9-------------------------------|--------------------------------|
|9-------------------------------|--------------------------------|
|7-------------------------------|----------------5-h-7---7-h-8---|
|--------------------------------|--------------------------------|

|--------------------------------|--------------------------------|
|--------------------------------|--------------------------------|
|12------------------------------|10------------------------------|
|12------------------------------|10----------------------10------|
|10------------------------------|8---------------10------8-------|
|--------------------------------|----------------8---------------|

|--------------------------------|--------------------------------|
|--------------------------------|--------------------------------|
|9---9-------9-------------------|--------------------------------|
|9---9-------9-------10------9---|----5-------2---3---------------|
|7---7-------7-------10------9---|----5-------2---3---------------|
|--------------------8-------7---|----3-------0---1---------------|

*******************************************************************

(Here's the structure for the rest of the song...)

Interlude:
----------

Tapping Solo:
-------------

Chorus: Play 2x
-------

*******************************************************************

Verse 2:
--------

|--------------------------------|
|--------------------------------|
|--------------------------------|
|(3)-----------------------------|
|(3)-----------------------------|
|(1)-----------------------------|

Bass & Drums for half a while , about 14 bars.

|--------------------------------|
|--------------------------------|
|--------------------------------|
|--------------------------------|
|----8---5---7-------8---7---5---|
|----6---3---5-------6---5---3---|


||--------------------------------|--------------------------------|
||--------------------------------|--------------------------------|
||--------------------------------|--------------------------------|
||--------------------------------|--------------------------------|
||8-----------7---------------5---|--------------------------------|
||6---0---0---5---0---0---0---3---|0---0---0---0---0---0---0---0---|
      .   .       .   .   .        .   .   .   .   .   .   .   .

                                                             Play 4x
|--------------------------------|--------------------------------||
|--------------------------------|--------------------------------||
|--------------------------------|--------------------------------||
|--------------------------------|--------------------------------||
|8-----------7---------------5---|----8---5---7-------8---7---5---||
|6---0---0---5---0---0---0---3---|----6---3---5-------6---5---3---||
     .   .       .   .   .

Out:
----
                             Play 4x
||--------------------------------||---------------|
||--------------------------------||---------------|
||--------------------------------||---------------|
||--------------------------------||---------------|
||----8---5---7-------8---7---5---||2--------------|
||----6---3---5-------6---5---3---||0--------------|

End.

--
+---------------------------------------------+----------------------------+
| Lee Metcalfe                                | E-Mail: scm2lm@cm.cf.ac.uk | 
| University of Wales, College of Cardiff     |    Irc: Bud3              / 
| Tied to machines that make me be -Metallica | XPilot: Bud3             /
+---------------------------------------------+-------------------------':)

Comments