Megadeth - Hook In Mouth Chords & Tabs

 

Hook In Mouth Chords & Tabs

Megadeth Chords & Tabs

Version: 1 Type: Tab 1 rating
1 star 2 stars 3 stars 4 stars 5 stars
comments

Hook In Mouth Tab

   
Megadeth
album So Good ,So Far ,So what,    1988
Hook in Mouth

Gtr I (E A D G B E) - 'Dave Mustaine'
Gtr II (E A D G B E) - 'Jeff Young'
Gtr III (E A D G B E) - 'Jeff Young rhythm'

 Intro
   Fast Rock Q=155
   BbG5A5 BbA5G5   BbG5A5 BbA5G5
 4/4
   Gtrs I, II
|---------------|---------------||
|---------------|---------------||
|---------------|---------------||
|---------------|---------------||
|--8-5-7--8-7-5-|--8-5-7--8-7-5-||
|--6-3-5--6-5-3-|--6-3-5--6-5-3-||


 Verse 1
  E5                    BbG5A5 BbA5G5
|----------|---------|---------------||
|----------|---------|---------------||
|----------|---------|---------------||
|----------|---------|---------------||
|-2--------|---------|--8-5-7--8-7-5-||
|-0--------|---------|--6-3-5--6-5-3-||


   Verse 2
    A5Bb5   G5A5      F#G5
        PM|     PM--|       PM------------|
||------------------------|-----------------|
||o-----------------------|-----------------|
||------------------------|-----------------|
||------------------------|-----------------|
||o-7s8-----5s7-------4s5-|-----------------|
||--5s6-0-0-3s5-0-0-0-2s3-|-0-0-0-0-0-0-0-0-|


  A5Bb5   G5A5      F#G5    BbG5A5 BbA5G5
      PM|     PM--|       PM
                                            4x
|-----------------------|-------------------||
|-----------------------|------------------o||
|-----------------------|-------------------||
|-----------------------|-------------------||
|-7s8-----5s7-------4s5-|---8-5-7--8-7-5---o||
|-5s6-0-0-3s5-0-0-0-2s3-|-0-6-3-5--6-5-3----||


   Bridge
     BbG5A5 BbA5G5        A5Bb5       BbB5
                              PM----|     PM------------|
                   4x
||-----------------||-||----------------------------------|
||o---------------o||-||o---------------------------------|
||-----------------||-||----------------------------------|
||-----------------||-||----------------------------------|
||o--8-5-7--8-7-5-o||-||o-7s8---------8s9-----------------|
||---6-3-5--6-5-3--||-||--5s6-0-0-0-0-6s7-0-0-0-0-0-0-0-0-|


  B5C5         C5 C#5
       PM----|       PM------------|
|------------------------------------|
|------------------------------------|
|------------------------------------|
|------------------------------------|
|-9s10---------10s11-----------------|
|-7--8-0-0-0-0--8s=9-0-0-0-0-0-0-0-0-|


  1.,2.,3.                  4.
  E5VII                             C5  B5
                         4x
|----------|-------------||---------------|
|----------|------------o||---------------|
|----------|-------------||---------------|
|-9--------|-(9)---------||-9-9--9--------|
|-7--------|-(7)--------o||-7-7--7--10--9-|
|----------|-------------||----------8--7-|


   G5     F5
                             2/4
      PM|
|--------------|------------|--------||
|--------------|------------|--------||
|--------------|------------|--------||
|--------------|------------|--------||
|--5------3----|-(3)--------|-(3)----||
|--3--0-0-1----|-(1)--------|-(1)----||


 Solo 1 (Jeff Young)
  $
  N.C.
 4/4
  Gtr I
  PM--------------|
|---------------------------------------|
|---------------------------------------|
|---------------------------------------|
|---------------------------------------|
|-------------------------0h1h=2-2h3--3-|
|-0----0-0--3-0-0-0--0h3----------------|
|
| Gtr II
|---------------------------------------|
|---------------------------------------|
|---------------------------------------|
|----------------------7----------------|
|-7-9-10-9-10-9-7-9-10---10-9-10-9-7----|
|------------------------------------10-|


                               F5
  PM--------------|
|---------------------------------------|
|---------------------------------------|
|---------------------------------------|
|---------------------------------------|
|------------------------0h1p0--3-------|
|-0----0-0--3-0-0-0-0h3---------1-------|
|
|---------------------------------------|
|---------------------------------------|
|-------------------7-------------------|
|-----------------9---9-10-7-9----------|
|-7-9-10-9-10-9-7--------------10-9-----|
|-----------------------------------10--|


  N.C.
  PM--------------|
|---------------------------------------|
|---------------------------------------|
|---------------------------------------|
|---------------------------------------|
|-------------------------0h1h=2-2h3--3-|
|-0----0-0--3-0-0-0--0h3----------------|
|
|---------------------------------------|
|---------------------------------------|
|---------------------------------------|
|----------------------7----------------|
|-7-9-10-9-10-9-7-9-10---10-9-10-9-7----|
|------------------------------------10-|


                                    F5
  PM--------------|
|-------------------------------------------|
|-------------------------------------------|
|-------------------------------------------|
|-------------------------------------------|
|---------------------------0h=1p=0--3------|
|-0----0-0-3--0-0--0--0h=3-----------1------|
|
|-------------------------------------------|
|-----------------------10------------------|
|---------------9-11-12----12-11-12-11-9----|
|--------7-9-10--------------------------12-|
|-7-9-10------------------------------------|
|-------------------------------------------|


  N.C.
  PM-----------------|
|----------------------------------------------|
|----------------------------------------------|
|----------------------------------------------|
|----------------------------------------------|
|------------------------------0h=1h=2--2h3--3-|
|-0-----0--0--3--0-0--0--0h=3------------------|
|
|----------------------------------------------|
|--------------------------10------------------|
|-9-11-12-11-12-11-9-11-12----12-11-12-11-9-11-|
|----------------------------------------------|
|----------------------------------------------|
|----------------------------------------------|


                                         F5
   PM------------------|
|-------------------------------------------------|
|-------------------------------------------------|
|-------------------------------------------------|
|-------------------------------------------------|
|--------------------------------0h=1p=0--3-------|
|--0-----0--0--3--0--0--0--0h=3-----------1-------|
|
|-------10----------------------------------------|
|-12-13----13-12-10-13-12-10----12-10-------------|
|----------------------------12-------12-11-12-11-|
|-------------------------------------------------|
|-------------------------------------------------|
|-------------------------------------------------|


  N.C.
  PM-----------------------|
|----------------------------------------------------|
|----------------------------------------------------|
|----------------------------------------------------|
|----------------------------------------------------|
|------------------------------------0h=1h=2--2h3--3-|
|-0--------0--0--3--0-0-----0--0h=3------------------|
|
|----------------------------------------------------|
|--------------------------------10------------------|
|-9-11h12-12-11-12-11-9-11h12-12----12-11-12-11-9-11h|
|----------------------------------------------------|
|----------------------------------------------------|
|----------------------------------------------------|


                                 F5
   PM---------------|
|---------------------------------------||
|---------------------------------------||
|---------------------------------------||
|---------------------------------------||
|-------------------------0h1p=0-3------||
|--0-----0--0-3-0-0-0-0h3--------1------||
|
|---------------------------------------||
|---------------------------------------||
|-12-12-11-12-9-8-9-8-------------------||
|---------------------9-7-9-7-----------||
|-----------------------------10-9-7----||
|------------------------------------10-||


 Solo 2 (Dave Mustaine)
                                              F5
  Gtr I
   T        T        T          T        T          T
|-19p12p10-20p15p10-19p12p10---20p15p10-19p12p==10-20p15p10-|
|-----------------------------------------------------------|
|-----------------------------------------------------------|
|-----------------------------------------------------------|
|-----------------------------------------------------------|
|-----------------------------------------------------------|
|
| Gtr III
|  PM-----------------------------------|
|-----------------------------------------------------------|
|-----------------------------------------------------------|
|-----------------------------------------------------------|
|-----------------------------------------------------------|
|---------------------------------------------3-------------|
|--0-----0--0--3--0--0--0--0----3--5--0--3----1-------------|
|
| Gtr II
|  ~~~
|-----------------------------------------------------------|
|-----------------------------------------------------------|
|-----------------------------------------------------------|
|-----------------------------------------------------------|
|--7----------------------(7)\------------------------------|
|-----------------------------------------------------------|

[ Tab from: http://www.guitartabs.cc/tabs/m/megadeth/hook_in_mouth_tab.html ]
                                        F5
   T       T       T       T       T         T
|-18p12p9-19p14p9-18p12p9-19p14p9-18p12p==9-19p14p9-|
|---------------------------------------------------|
|---------------------------------------------------|
|---------------------------------------------------|
|---------------------------------------------------|
|---------------------------------------------------|
|
|  PM-----------------------------|
|---------------------------------------------------|
|---------------------------------------------------|
|---------------------------------------------------|
|---------------------------------------------------|
|---------------------------------------3-----------|
|--0----0--0--3-0--0--0-0--3--5-0--3----1-----------|
|
|---------------------------------------------------|
|---------------------------------------------------|
|---------------------------------------------------|
|---------------------------------------------------|
|---------------------------------------------------|
|---------------------------------------------------|


                                        F5
   T       T       T       T       T         T
|-17p10p8-18p13p8-17p10p8-18p13p8-17p10p==8-18p13p8-|
|---------------------------------------------------|
|---------------------------------------------------|
|---------------------------------------------------|
|---------------------------------------------------|
|---------------------------------------------------|
|
|  PM-----------------------------|
|---------------------------------------------------|
|---------------------------------------------------|
|---------------------------------------------------|
|---------------------------------------------------|
|---------------------------------------3-----------|
|--0----0--0--3-0--0--0-0--3--5-0--3----1-----------|


                                        F5
   T       T       T       T       T         T
|-16p10p7-17p12p7-16p10p7-17p12p7-16p10p==7-17p12p7-|
|---------------------------------------------------|
|---------------------------------------------------|
|---------------------------------------------------|
|---------------------------------------------------|
|---------------------------------------------------|
|
|  PM-----------------------------|
|---------------------------------------------------|
|---------------------------------------------------|
|---------------------------------------------------|
|---------------------------------------------------|
|---------------------------------------3-----------|
|--0----0--0--3-0--0--0-0--3--5-0--3----1-----------|


                                     F5
   T      T       T      T       T        T
|-15p8p6-16p11p6-15p8p6-16p11p6-15p8p==6-16p11p6-|
|------------------------------------------------|
|------------------------------------------------|
|------------------------------------------------|
|------------------------------------------------|
|------------------------------------------------|
|
|  PM---------------------------|
|------------------------------------------------|
|------------------------------------------------|
|------------------------------------------------|
|------------------------------------------------|
|------------------------------------3-----------|
|--0---0--0--3-0--0-0-0--3--5-0--3---1-----------|


                                     F5
   T      T       T      T       T        T
|-14p8p5-15p10p5-14p8p5-15p10p5-14p8p==5-15p10p5-|
|------------------------------------------------|
|------------------------------------------------|
|------------------------------------------------|
|------------------------------------------------|
|------------------------------------------------|
|
|  PM---------------------------|
|------------------------------------------------|
|------------------------------------------------|
|------------------------------------------------|
|------------------------------------------------|
|------------------------------------3-----------|
|--0---0--0--3-0--0-0-0--3--5-0--3---1-----------|


                                   F5
   T      T      T      T      T        T
|-13p6p4-14p9p4-13p6p4-14p9p4-13p6p==4-14p9p4-|
|---------------------------------------------|
|---------------------------------------------|
|---------------------------------------------|
|---------------------------------------------|
|---------------------------------------------|
|
|  PM-------------------------|
|---------------------------------------------|
|---------------------------------------------|
|---------------------------------------------|
|---------------------------------------------|
|----------------------------------3----------|
|--0---0--0-3-0--0-0-0--3-5-0--3---1----------|


                                   F5
   T      T      T      T      T        T
|-12p6p3-13p8p3-12p6p3-13p8p3-12p6p==3-13p8p3-||
|---------------------------------------------||
|---------------------------------------------||
|---------------------------------------------||
|---------------------------------------------||
|---------------------------------------------||
|
|  PM-------------------------|
|---------------------------------------------||
|---------------------------------------------||
|---------------------------------------------||
|---------------------------------------------||
|----------------------------------3----------||
|--0---0--0-3-0--0-0-0--3-5-0--3---1----------||


   Chorus
    G5X         F5VIII      E5VII
    Gtrs I, II
                                             PM|     PM|     PM|
||------------|-----------|----------|---------------------------|
||o-----------|-----------|----------|---------------------------|
||------------|-----------|----------|---------------------------|
||--12--------|-10--------|-9--------|-(9)-----------------------|
||o-10--------|--8--------|-7--------|-(7)-------5h7-----8p7-----|
||------------|-----------|----------|-------0-0-----0-0-----0-0-|


                             1.
  G5X         F5VIIIC5  F5VIIIE5VII        C5  B5 G5
                                                     PM
|-----------|---------------|----------|----------------||
|-----------|---------------|----------|---------------o||
|-----------|---------------|----------|----------------||
|-12--------|-10--------10--|-9--------|-9--------------||
|-10--------|--8----10---8--|-7--------|-7-10--9--5----o||
|-----------|--------8------|----------|----8--7--3--0--||


  2.
                     To Coda          D.S. al Coda
  E5VII   C5  B5   G5 E5  F5
                                             2/4
                      PM|
|---------------|--------------|------------|--------||
|---------------|--------------|------------|--------||
|---------------|--------------|------------|--------||
|-9-9--9--------|--------------|------------|--------||
|-7-7--7--10--9-|--5------3----|-(3)--------|-(3)----||
|----------8--7-|--3--0-0-1----|-(1)--------|-(1)----||


   Chorus
    &
    G5X         F5VIII      E5VII
   4/4
                                             PM|     PM|     PM|
||------------|-----------|----------|----------------------------|
||o-----------|-----------|----------|----------------------------|
||------------|-----------|----------|----------------------------|
||--12--------|-10--------|-9--------|-(9)------------------------|
||o-10--------|--8--------|-7--------|-(7)-------5h7-----8p7------|
||------------|-----------|----------|-------0-0-----0-0-----0-0--|


                             1.
  G5X         F5VIIIC5  F5VIIIE5VII        C5  B5 G5
                                                     PM
|-----------|---------------|----------|----------------||
|-----------|---------------|----------|---------------o||
|-----------|---------------|----------|----------------||
|-12--------|-10--------10--|-9--------|-9--------------||
|-10--------|--8----10---8--|-7--------|-7-10--9--5----o||
|-----------|--------8------|----------|----8--7--3--0--||


  2.
  E5VII   C5  B5   G5     F5
                                             2/4
                      PM|
|---------------|--------------|------------|--------||
|---------------|--------------|------------|--------||
|---------------|--------------|------------|--------||
|-9-9--9--------|--------------|------------|--------||
|-7-7--7--10--9-|--5------3----|-(3)--------|-(3)----||
|----------8--7-|--3--0-0-1----|-(1)--------|-(1)----||


  Verse 3
  N.C.       BbG5A5 BbA5G5
 4/4
|---------|---------------||
|---------|---------------||
|---------|---------------||
|---------|---------------||
|---------|--8-5-7--8-7-5-||
|---------|--6-3-5--6-5-3-||


   Verse 2
    A5Bb5   G5A5      F#G5
        PM|     PM--|       PM------------|
||------------------------|-----------------|
||o-----------------------|-----------------|
||------------------------|-----------------|
||------------------------|-----------------|
||o-7s8-----5s7-------4s5-|-----------------|
||--5s6-0-0-3s5-0-0-0-2s3-|-0-0-0-0-0-0-0-0-|


  A5Bb5   G5A5      F#G5    BbG5A5 BbA5G5
      PM|     PM--|       PM
                                            4x
|-----------------------|-------------------||
|-----------------------|------------------o||
|-----------------------|-------------------||
|-----------------------|-------------------||
|-7s8-----5s7-------4s5-|---8-5-7--8-7-5---o||
|-5s6-0-0-3s5-0-0-0-2s3-|-0-6-3-5--6-5-3----||


   Outro
     BbG5A5 BbA5G5    E5VII
                   4x
||-----------------||----------*|
||o---------------o||----------*|
||-----------------||----------*|
||-----------------||-9--------*|
||o--8-5-7--8-7-5-o||-7--------*|
||---6-3-5--6-5-3--||----------*|



			
Comments