Megadeth - Holy Wars The Punishment Due Chords & Tabs

 

Holy Wars The Punishment Due Chords & Tabs

Megadeth Chords & Tabs

Version: 1 Type: Tab 1 rating
1 star 2 stars 3 stars 4 stars 5 stars
comments

Holy Wars The Punishment Due Tab

   
Megadeth
album Rust in peace
Holy Wars the punishment due

Gtr I (E A D G B E) - 'Dave Mustaine'
Gtr II (E A D G B E) - 'Marty Friedman'
Gtr III (E A D G B E) - 'Marty Friedman'
Gtr IV (E A D G B E) - 'Dave Mustaine (Whammy Bar)'

 Intro
  Moderately Fast Rock Q=168
         N.C.                            E5
 4/4
         Gtr I
|------------|-------------------------|-------------------|
|------------|-------------------------|-------------------|
|------------|-------------------------|-------------------|
|------------|-------------------------|-------------------|
|--------5-6-|-7-----------------------|-2----(2)--(2)-5-6-|
|------------|---5-6-7-7-6-5-5-4-3-5-3-|-0----(0)--(0)-----|


                            F#5           N.C.
                                          Gtrs I, II
|-------------------------|-------------------|-------------------------|
|-------------------------|-------------------|-------------------------|
|-------------------------|-------------------|-------------------------|
|-------------------------|-------------------|---------------------2-3-|
|-7-----------------------|-4----(4)--(4)-5-6-|-7-----------------------|
|---5-6-7-7-6-5-5-4-3-5-3-|-2----(2)--(2)-----|---5-6-7-7-6-5-5-4-3-----|


  N.C.
                                                PM|
|-------------------------|-------------------------||
|-------------------------|-------------------------||
|-------------------------|-------------------------||
|-3-----------------------|-------------------------||
|---3-4-5-5-4-3-4-3-2-5-6-|-7-------------------0-5-||
|-------------------------|---5-6-7-7-6-5-5-4-3-----||


    N.C.                                                   A5Bb5
   4/4
        PM--|      PM------------|       PM--|     PM----|
||---------------------------------|---------------------------|
||o--------------------------------|---------------------------|
||---------------------------------|---------------------------|
||---------------------------------|---------------------------|
||o-5h7-------10p7-----------------|-5h7-------5h7---------7-8-|
||------0-0-0------0-0-0-0-0-0-0-0-|-----0-0-0-----0-0-0-0-5-6-|


  N.C.                                                   E5Bb5
      PM--|      PM------------|       PM--|     PM----|
|--------------------------------|---------------------------|
|--------------------------------|---------------------------|
|--------------------------------|---------------------------|
|--------------------------------|-----------------------9---|
|-5h7-------10p7-----------------|-5h7-------5h7---------7-8-|
|-----0-0-0------0-0-0-0-0-0-0-0-|-----0-0-0-----0-0-0-0---6-|


  N.C.                                                   B5G5
      PM--|      PM------------|       PM--|     PM----|
|--------------------------------|---------------------------|
|--------------------------------|---------------------------|
|--------------------------------|---------------------------|
|--------------------------------|-----------------------4---|
|-5h7-------10p7-----------------|-5h7-------5h7---------2-5-|
|-----0-0-0------0-0-0-0-0-0-0-0-|-----0-0-0-----0-0-0-0---3-|


  1.
  N.C.                       B5              Bb5       A5    B5
      PM--|      PM--------|         PM----|       PM|   PM
|------------------------------|---------------------------|------|
|------------------------------|---------------------------|------|
|------------------------------|---------------------------|------|
|------------------------------|---------------------------|-4----|
|-5h7-------10p7-------------9-|-(9)---------8-(8)-----7---|-2----|
|-----0-0-0------0-0-0-0-0-0-7-|-(7)-0-0-0-0-6-(6)-0-0-5-0-|------|


                  2.
  B5     G5F#5    N.C.
                  Gtr I
                      PM--|      PM--------| ~       PM----| ~     PM|
|--------------||------------------------------|---------------------------|
|-------------o||------------------------------|---------------------------|
|--------------||------------------------------|---------------------------|
|-4----4-------||------------------------------|---------------------------|
|-2----2-5-4--o||-5h7-------10p7---------------|---------------------------|
|--------3-2---||-----0-0-0------0-0-0-0-0-0-7-|-(7)-0-0-0-0-6-(6)-0-0-5-0-|
|
|                 Gtr II
|                     PM--|      PM--------| ~       PM----| ~     PM|
|--------------||------------------------------|---------------------------|
|-------------o||------------------------------|---------------------------|
|--------------||------------------------------|---------------------------|
|--------------||------------------------------|---------------------------|
|-------------o||-5h7-------10p7-------------9-|-(9)---------8-(8)-----7---|
|--------------||-----0-0-0------0-0-0-0-0-0---|-----0-0-0-0-------0-0---8-|


  N.C.
      PM--|      PM--------| ~       PM----| ~     PM|
|------------------------------|---------------------------|
|------------------------------|---------------------------|
|------------------------------|---------------------------|
|------------------------------|---------------------------|
|-5h7-------10p7-------------6-|-(6)---------5-(5)-----4---|
|-----0-0-0------0-0-0-0-0-0---|-----0-0-0-0-------0-0---5-|
|
|     PM--|      PM--------| ~       PM----| ~     PM|
|------------------------------|---------------------------|
|------------------------------|---------------------------|
|------------------------------|---------------------------|
|------------------------------|---------------------------|
|-5h7-------10p7-------------9-|-(9)---------8-(8)-----7---|
|-----0-0-0------0-0-0-0-0-0---|-----0-0-0-0-------0-0---8-|


  N.C.
      PM--|      PM--------| ~       PM----| ~     PM|
|------------------------------|---------------------------|
|------------------------------|---------------------------|
|------------------------------|---------------------------|
|------------------------------|---------------------------|
|-5h7-------10p7-------------9-|-(9)---------8-(8)-----7---|
|-----0-0-0------0-0-0-0-0-0---|-----0-0-0-0-------0-0---8-|
|
|     PM--|      PM--------| ~       PM----| ~     PM|
|------------------------------|---------------------------|
|------------------------------|---------------------------|
|------------------------------|---------------------------|
|------------------------------|---------------------------|
|-5h7-------10p7-------------9-|-(9)---------8-(8)-----7---|
|-----0-0-0------0-0-0-0-0-0---|-----0-0-0-0-------0-0---8-|


  N.C.
      PM--|      PM--------|  ~~       PM----|  ~~     PM|
|-------------------------------|---------------------------------||
|-------------------------------|---------------------------------||
|-------------------------------|---------------------------------||
|-------------------------------|---------------------------------||
|-5h7-------10p7-------------14-|-(14)---------13-(13)-----12-----||
|-----0-0-0------0-0-0-0-0-0----|------0-0-0-0---------0-0----13\-||
|
|     PM--|      PM--------|  ~~       PM----|  ~~     PM|
|-------------------------------|---------------------------------||
|-------------------------------|---------------------------------||
|-------------------------------|---------------------------------||
|-------------------------------|---------------------------------||
|-5h7-------10p7--------------9-|--(9)----------8--(8)------7-----||
|-----0-0-0------0-0-0-0-0-0----|------0-0-0-0---------0-0-----8--||


   Interlude
    N.C.
    Gtr II
          PM-----|          PM------------------|
||------------------------------------------------|
||o-----------------------------------------------|
||------------------------------------------------|
||------------------------------------------------|
||o---5h7-------------10p7------------------------|
||--------0----0-0----------0-0-0----0-0-0----0-0-|
|
|   Gtr I
||------------------------------------------------|
||o-----------------------------------------------|
||------------------------------------------------|
||----------12-----------------------------12-----|
||o-/10------------10-------------10--------------|
||-------------------------12---------------------|


                                   B5
       PM-----|         PM-------|
|---------------------------------------|
|---------------------------------------|
|---------------------------------------|
|---------------------------------------|
|--5h7-------------5h7-------------9----|
|------0----0-0---------0-0-0----0-7----|
|
|---------------------------------------|
|---------------------------------------|
|---------------------------------------|
|--------14-----------------------------|
|-12--------------------------14--------|
|---------------12-----11------------11-|


    N.C.                                                           B5
        PM--|       PM---------------|         PM--|      PM-----|
|--------------------------------------|----------------------------------|
|--------------------------------------|----------------------------------|
|--------------------------------------|----------------------------------|
|--------------------------------------|----------------------------------|
|---5h7-------10p7---------------------|--5h=7-------5h7-----------9------|
|-------0-0-0-------0--0-0-0-0-0--0--0-|-------0-0-0------0--0-0-0-7------|
|
|   ~~~~~~~~~~~~~~~~~~~~~~~~~~~~~~~~~~~~~~~~~~~~~~~~~~~~~~~~~
|--------------------------------------|----------------------------------|
|--------------------------------------|----------------------------------|
|--------------------------------------|----------------------------------|
|--------------------------------------|----------------------------------|
|-5s7--------------(7)-----------(7)---|-(7)-------------(7)---------(7)\-|
|--------------------------------------|----------------------------------|


  N.C.
        PM-----|          PM------------------|
|-----------------------------------------------|
|-----------------------------------------------|
|-----------------------------------------------|
|-----------------------------------------------|
|---5h7-------------10p7------------------------|
|-------0----0-0----------0-0-0----0-0-0----0-0-|
|
|-----------------------------------------------|
|-----------------------------------------------|
|-----------------------------------------------|
|---------12-----------------------------12-----|
|-/10------------10-------------10--------------|
|------------------------12---------------------|


                                 B5
       PM----|         PM------|
|-------------------------------------|
|-------------------------------------|
|-------------------------------------|
|-------------------------------------|
|--5h7------------5h7------------9----|
|------0---0-0---------0-0-0---0-7----|
|
|-------------------------------------|
|-------------------------------------|
|-------------------------------------|
|--------------13------------------12-|
|--------9-------------------9--------|
|-11------------------10--------------|


    N.C.                     B5
        PM--|       PM-----|
|----------------------------------|
|----------------------------------|
|----------------------------------|
|----------------------------------|
|---5h7-------10p7-----------9-----|
|-------0-0-0-------0--0-0-0-7-----|
|
|   ~~~~~~~~~~~~~~~~~~~~~~~~~~~~~~~~
|----------------------------------|
|----------------------------------|
|----------------------------------|
|----------------------------------|
|-5s7--------------(7)---------(7)-|
|----------------------------------|


  1.                             2.
  N.C.                    B5     N.C.                      G5
        PM--|     PM----|              PM--|   PM--------|   PM
|-----------------------------||---------------------------------|
|----------------------------o||---------------------------------|
|-----------------------------||---------------------------------|
|-----------------------------||---------------------------------|
|--5h=7-------5h7---------9--o||--5h=7-------5h7-----------5-----|
|-------0-0-0-----0-0-0-0-7---||-------0-0-0-----0--0--0-0-3-0---|
|
|~~~~~~~~~~~~~~~~~~~~~~~~~~~~~~~~~~~~~~~~~~~~~~~~~~~~~~
|-----------------------------||---------------------------------|
|----------------------------o||---------------------------------|
|-----------------------------||---------------------------------|
|-----------------------------||---------------------------------|
|-(7)------------------------o||-(7)---------------(7)-----------|
|-----------------------------||---------------------------------|


    F#G5  F#5     G5        F#5     G5  N.C.
    Gtrs I, II
        PM  PM|       PM|     PM|           PM--|      PM------------|
||------------------|-----------------|---------------------------------|
||o-----------------|-----------------|---------------------------------|
||------------------|-----------------|---------------------------------|
||------------------|-----------------|---------------------------------|
||o-4-5---4-----4-5-|-----5-4-----4-5-|-5h7-------10p7------------------|
||--2-3-0-2-0-0-2-3-|-0-0-3-2-0-0-2-3-|-----0-0-0------0-0-0-0-0-0-0-0--|


                                                1.
  N.C.                  G     F#G   F#      G         F#      G
      PM--|     PM----|   PM      PM  PM|       PM|     PM|
|---------------------------|-----------------|-----------------|
|---------------------------|-----------------|-----------------|
|---------------------------|-----------------|-----------------|
|---------------------------|-----------------|-----------------|
|-5h7-------5h7---------2---|-1-2---1-----1-2-|-----2-1-----1-2-|
|-----0-0-0-----0-0-0-0-3-0-|-2-3-0-2-0-0-2-3-|-0-0-3-2-0-0-2-3-|


  N.C.                                                   G5
      PM--|      PM------------|       PM--|     PM----|   PM
|--------------------------------|----------------------------||
|--------------------------------|---------------------------o||
|--------------------------------|----------------------------||
|--------------------------------|----------------------------||
|-5h7-------10p7-----------------|-5h7-------5h7---------5---o||
|-----0-0-0------0-0-0-0-0-0-0-0-|-----0-0-0-----0-0-0-0-3-0--||


                       Verses 1-4
  2.
  N.C.G F#              N.C.    GIV F#IIN.C.          Bb    B Bb
  PM|     PM              PM--|   PM  PM        PM--|
|-------------------||----------------------|-----------------------|
|-------------------||o---------------------|-----------------------|
|-------------------||----------4---3-------|-----------------------|
|-------------------||----------5---4-------|-----------------------|
|-----2-1-----1-5-6-||o-7---------------5-6-|-7-------5-(5)-6-5-5-6-|
|-0-0-3-2-0-0-2-----||----0-0-0---0---0-----|---0-0-0-6-(6)-7-6-----|


  N.C.    Em  D#m                       F#G   Bb    A       G A
    PM--|   PM  PM        PM--| ~~~~~~          PM|       PM
|---------------------|---------------------|-------------------|
|---------------------|---------------------|-------------------|
|---------------------|---------------------|-------------------|
|---------5---4-------|---------------------|-------------------|
|-7-------7---6---5-6-|-7---------------1-2-|-4-----4-(4)---2-4-|
|---0-0-0---0---0-----|---0-0-0-2-(2)-0-2-3-|-5-0-0-5-(5)-0-3-5-|


                                             1.,2.,3.
  Bb          N.C.              Bb    A G               Bb5   A5G5
    PM|                   PM--|                   PM--|
                                                                       3x
|-------------------|-----------------------|--------------------------||
|-------------------|-----------------------|-------------------------o||
|-------------------|-----------------------|--------------------------||
|-------------------|-----------------------|--------------------------||
|-5-----5-(5)-------|-----------5-(5)-4-2---|-----------8-(8)-7-5-5-6-o||
|-6-0-0-6-(6)-5-3-5-|-3p0-0-0-0-6-(6)-5-3-5-|-3p0-0-0-0-6-(6)-5-3------||


                                                      Guitar Solo 1
  4.
  N.C.      Bb5   A5G5N.C.                             E5
                                                       Gtr I
                                                       |
                                                       /

                                                          Gtr III
      PM--|                                                     ~~
|-------------------------|-------------------------||------------------:
|-------------------------|-------------------------||---------12---10--:
|-------------------------|-------------------------||----9h10----------:
|-------------------------|-------------------------||------------------:
|-----------8-(8)-7-5-5-6-|-7-----------------------||------------------:
|-3p0-0-0-0-6-(6)-5-3-----|---5-6-7-7-6-5-5-4-3-5-3-||------------------:


 3/4                 4/4
   |           |       |
   /           /       /

|-------11-12p11----:-11h12----12p10----10p8----8p7---7p5---5p:
|-12-13----------13-:-------13-------12------10-----9-----6---:
|-------------------:-----------------------------------------:
|-------------------:-----------------------------------------:
|-------------------:-----------------------------------------:
|-------------------:-----------------------------------------:


  |
  /

|-4---4h5---7-7s10-7-5h6p5----:
|---5-----6----------------6--:
|-----------------------------:
|-----------------------------:
|-----------------------------:
|-----------------------------:


                                               E
  |                       |                     |
  /                       /                     /

|-----------------------:--------------------:-^0----||
|---4-5---4-5-4---------:--------------------:-^0----||
|-7-----6-------7-6-5-4-:---5-4--------------:-^x----||
|-----------------------:-7-----7-6-5-4-3-2--:-^2----||
|-----------------------:--------------------:-^2----||
|-----------------------:--------------------:-^0----||


   Bridge
    Moderately Q=130
    C5B5/F#     C5B5/F#         C5D5/A
   4/4
    Gtr II
        PM  PM|       PM  PM|     ~
                                      4x
||------------------|-----------------||
||o-----------------|----------------o||
||------------------|-----------------||
||------------------|-----------------||
||o-3-2---2-----3-2-|---2-----2-3-5--o||
||--3-2-0-2-0-0-3-2-|-0-2-0-0-2-3-5---||


   E5              C5                                G F#
   Gtr I
   PM|         PM                                  PM
||-------------------|----------------|------------------|
||-------------------|----------------|------------------|
||-------------------|----------------|------------------|
||-----0h2---4-----5-|-(5)----(5)\----|----0h2---4-------|
||---------2-----3-3-|-(3)----(3)\----|-2------2-----2-1-|
||-0-0---------0-----|----------------|-0----------0-3-2-|
|
|  Gtr II
||-------------------|----------------|------------------|
||-------------------|----------------|------------------|
||-------------------|----------------|------------------|
||-------------------|----------------|------------------|
||-2-----------------|----------------|------------------|
||-0-----------------|----------------|------------------|


      F#F       E5                   C5
                                 PM
|-0-------0-------|--------------------|----------------|
|---0-------0-----|--------------------|----------------|
|-----------------|--------------------|----------------|
|-----------------|------0h2---4-----5-|-(5)----(5)\----|
|-----1-0-----0-2-|-(2)------2-----3-3-|-(3)----(3)\----|
|-----2-1-----1-0-|-(0)----------0-----|----------------|
|
|-----------------|--------------------|----------------|
|-----------------|--------------------|----------------|
|-----------------|--------------------|----------------|
|-----------------|--------------------|----------------|
|---------------2-|-(2)----------------|----------------|
|---------------0-|-(0)----------------|----------------|


                                        Verses 5&6
                                     $
  E5           G F#        F       E5    N.C.
                                     Gtrs I, II
             PM                          PM|         PM  ~
|------------------|-0-------0-------||---------------------|
|------------------|---0-------0-----||o--------------------|
|------------------|-----------------||---------------------|
|----0h2---4-------|-----------------||------0h2---4-----5--|
|-2------2-----2-1-|-----1-0-----0-2-||o---------2-----3----|
|-0----------0-3-2-|-----2-1-----1-0-||--0-0---------0------|
|
|------------------|-----------------||---------------------|
|------------------|-----------------||o--------------------|
|------------------|-----------------||---------------------|
|------------------|-----------------||---------------------|
|--------------2-1-|-----1-0-----0-2-||o--------------------|
|--------------3-2-|-----2-1-----1-0-||---------------------|


                                          1.,2.,3.
      C5              N.C.          G F#        F       E5
      PM----------------|         PM
|-------------------|-------------------|-0-------0--------||
|-------------------|-------------------|---0-------0-----o||
|-------------------|-------------------|------------------||
|-(5)-5-5-5-5-5-5-5-|-----0h2---4-------|------------------||
|-----3-3-3-3-3-3-3-|---------2-----2-1-|-----1-0-----0-2-o||
|-------------------|-0-0---------0-3-2-|-----2-1-----1-0--||


                    Guitar Solo 2
  4.
         To Coda
      F#F            G7
                     Gtr II
|-0-------0-------||-------------7-10p7-----------6-|
|---0-------0-----||-----------8--------8-------8---|
|-----------------||---------7------------7---7-----|
|-----------------||-----5h9----------------9-------|
|-----1-0-----0---||---5----------------------------|
|-----2-1-----1-3s||=7------------------------------|
|
|                    Gtr I
|                    PM-------------------------|
|-----------------||--------------------------------|
|-----------------||-------3---0--------------------|
|-----------------||----------------0---------------|
|-----------------||---0----------------3---0-------|
|-----------------||-2--------------------------1---|
|-----------------||--------------------------------|


  Bbsus2                                 F5       F#5
|-10p6---------------10-13p10------------13-18p13----|
|------6----------11----------11------15----------15-|
|--------7-----10------------------15----------------|
|----------/12---------------------------------------|
|----------------------------------------------------|
|----------------------------------------------------|
|
|  PM
|----------------------------------------------------|
|------------1---------------------------------------|
|------3-----------3---------------------------------|
|--3---------------------3---------------------------|
|----------------------------------------------------|
|--------------------------------0--------1--------2-|


  G7
      ~~~~~
|-18-18b19-----15--------------------------20b22-|
|-----------------15-17b18r(17)b18r(17)p15-------|
|------------------------------------------------|
|------------------------------------------------|
|------------------------------------------------|
|------------------------------------------------|
|
|  PM--------------------------------------|
|------------------------------------------------|
|----------3-0-----------------------------------|
|---------------0--------------------------------|
|---------------------3--------------0-----------|
|-----2-------------------------------------1----|
|--3---------------------------------------------|


  Bbsus2                     F5F#5
                                                                   ~~~~~~
|-(20)---(20)-20b22---(20)-----24b27-|-(24)pb27---24b27---24b27---24b27r(24)-|
|----------------------------x-------|---------------------------------------|
|----------------------------x-------|---------------------------------------|
|------------------------------------|---------------------------------------|
|------------------------------------|---------------------------------------|
|------------------------------------|---------------------------------------|
|
|   PM                                   PM-----------------------------------
|------------------------------------|---------------------------------------|
|----------1-------------------------|-------------3----0--------------------|
|------3------------3----------------|---------------------0-----------------|
|---3-------------------3------------|--------------------------3--0---------|
|------------------------------------|----------2-------------------------2--|
|--------------------------0-1--2----|---3-----------------------------------|


  Bbsus2                               F#5
                                     ~~
|-(24)---22p18-----------------------------------|
|------x-------20--------------------------------|
|------x----------19-----------------------------|
|--------------------20S19-15--------------------|
|-----------------------------17S15-13-----(13)--|
|------------------------------------------------|
|
|-|
|------------------------------------------------|
|------------1-----------------------------------|
|------3-----------3-----------------------------|
|---3--------------------3-----------------------|
|------------------------------------------------|
|---------------------------------0----1-2-------|


  G7
|-----------------------------------------||
|-----------------------------------------||
|-12-12-12-12-14-14-14-15-15-15-17-17-17\-||
|-----------------------------------------||
|-10-10-10-10-12-12-12-13-13-13-15-15-15\-||
|-----------------------------------------||
|
|  PM---------------------|
|-----------------------------------------||
|-----------3--0--------------------------||
|--------------------0--------------------||
|--------------------------3--------------||
|-----2--------------------------3--------||
|--3-----------------------------------2--||


                  F#         F                                   E5
 5/4                                                                                     4/4
|-----------18------------------------------------------------------------------20b22==||=(20)-(20)\------------------||
|-/18-15h18----18p==15----15h==18p15------------18p==15-15-----------------------------||-----------------------------||
|----------------------18------------18p==17p15------------18p17p15----18p17p15--------||-----------------------------||
|-------------------------------------------------------------------17-----------------||-----------------------------||
|--------------------------------------------------------------------------------------||-----------------------------||
|--------------------------------------------------------------------------------------||-----------------------------||
|
|                                                                                                            PM  ~
|---0-----------------------------------0----------------------------------------------||-----------------------------||
|---------0----------------------------------------0-----------------------------------||-----------------------------||
|--------------------------------------------------------------------------------------||-----------------------------||
|--------------------------------------------------------------------------------------||------------0h2---4-----5----||
|-----------------1----------0------------------------------0-----2--------------------||---2------------2-----3------||
|-----------------2----------1------------------------------1-----0--------------------||---0----------------0--------||


                                             D.S. al Coda
       C5               E5           G F#        F       E5
 4/4
|------------------|------------------|-----------------|
|------------------|------------------|-----------------|
|------------------|------------------|-----------------|
|---------------------|------------------|-----------------|
|---------------------|-2------------2-1-|-----1-0-----0-2-|
|---------------------|-0------------3-2-|-----2-1-----1-0-|
|
|      PM------|                   PM
|------------------|------------------|-0-------0-------|
|------------------|------------------|---0-------0-----|
|------------------|------------------|-----------------|
|-(5)\-5-5-5-5-5------|----0h2---4-------|-----------------|
|------3-3-3-3-3------|-2------2-----2-1-|-----1-0-----0-2-|
|---------------------|-0----------0-3-2-|-----2-1-----1-0-|


  &
  G7                                     Bbsus2              F5F#5
  Gtr II
                                         ~~~~~~                ~~~~~~
|--------------------------------------|------------------------------|
|--------------------------------------|---------x--------------------|
|-x-5b7====(5)r====(5)p==3-------------|---------x-3S5-5-5-5s7s5-(5)--|
|-x------------------------5s8s5p3-----|---------x--------------------|
|----------------------------------5p3-|------------------------------|
|--------------------------------------|-6-(6)------------------------|
|
| Gtr I
| PM-------------------------------------|
|--------------------------------------|------------------------------|
|--------------3-0---------------------|-------1----------------------|
|----------------------0---------------|----3------3------------------|
|--------0-----------------3---0-------|-3-------------3--------------|
|-2--------------------------------1---|------------------------------|
|--------------------------------------|-------------------0---1--2---|


  G7                          Bbsus2              F5 F#5G7
                                 ~~~~~~~~~
|---------------------------|-------------------------|
|-----6-8-6h8p6---6-7b8r(7)-|-------------------------|
|-5-7-----------7-----------|-7-10---(10)-------------|
|---------------------------|-------------------------|
|---------------------------|---------------------/14-|
|---------------------------|---------------/6\-------|
|
| PM--------------------------|
|---------------------------|-------------------------|
|-----3-0-------------------|------1------------------|
|---------0-----------------|----3-----3--------------|
|---------------3---0-------|-3-----------3-----------|
|---2--------------------2--|-------------------------|
|-3-------------------------|----------------0--1---2-|


                  ~~~~~~~~~~
|-----------------------------------|
|-------------15-18b20-(18)---15-18-|
|----------15-----------------------|
|----15-17--------------------------|
|-17--------------------------------|
|-----------------------------------|
|
|  PM----------------------------|
|-----------------------------------|
|-----------3-----0-----------------|
|------------------------0----------|
|---------------------------3--0----|
|-----2---------------------------2-|
|--3--------------------------------|


  Bbsus2                               F5 F#5
                                        ~~
|-----22p18-------------18p15---------------|
|-/18-------22-18S15h18-------18p15---------|
|-----------------------------------18-19---|
|-------------------------------------------|
|-------------------------------------------|
|-------------------------------------------|
|
|   PM
|-------------------------------------------|
|---------------1---------------------------|
|---------3-----------3---------------------|
|---3-----------------------3---------------|
|-------------------------------------------|
|---------------------------------0-----1-2-|


  G7                           G5 F#5        F# F           E5
                        ~~~~~                    ~~~~~~~~~
|-18-----20b22r(20)-15---------------|-----------------------------||
|------x---------------18b20---------|-----------------------------||
|----x-------------------------15S17-|-17S18-18S17---(17)---(17)\--||
|------------------------------------|-----------------------------||
|------------------------------------|-----------------------------||
|------------------------------------|-----------------------------||
|
|  PM------------------------|
|------------------------------------|--0----------0---------------||
|----------------3---0---------------|-----0-----------0-----------||
|-----------------------0------------|-----------------------------||
|----------------------------3-------|-----------------------------||
|---------2--------------------------|--------1--0--------0---2----||
|--3----------------------------3--2-|--------2--1--------1---0----||


    Faster Q=184
||--------------------------------------|
||o-------------------------------------|
||--------------------------------------|
||--------------------------------------|
||o-------------------------------------|
||-----------|


                                    1.
                          G5  F#G5     F#5     G5
                            PM       PM  PM|     PM|
|---------------------------------|------------------|
|---------------------------------|------------------|
|---------------------------------|------------------|
|---------------------------------|------------------|
|-------------------------5---4-5-|----4-----4-5-----|
|-------3-0-2-3-|--0-2-0-0-2-3-0-0-|


    F#5     G5E5
      PM|
|----------------|-------------------------------------|
|----------------|-------------------------------------|
|----------------|-------------------------------------|
|----------------|-------------------------------------|
|-5-4-----4-5-2--|-------------------------------------|
|-3-2-0-0-2-3-0--|----------|


                          G   F#G
                            PM
|---------------------------------|
|---------------------------------|
|---------------------------------|
|---------------------------------|
|-------------------------2---1-2-|
|-------3-0-2-3-|


    F#      G         F#      G E5
  PM  PM|     PM|       PM|
|-----------------|-----------------||
|-----------------|----------------o||
|-----------------|-----------------||
|-----------------|-----------------||
|---1-----1-2-----|-2-1-----1-2-2--o||
|-0-2-0-0-2-3-0-0-|-3-2-0-0-2-3-0---||


   2.
   F#GFG5                           F#5     G5
   Gtr I
                      <
||-----------------------|--------------------|
||-----------------------|--------------------|
||------------------[14]-|-(14)---------------|
||-----------------------|--------------------|
||-----------------------|--------------------|
||-----------------------|--------------------|
|
|  Gtr II
|  PM     PM|     PM------------|     PM|
||-----------------------|--------------------|
||-----------------------|--------------------|
||-----------------------|--------------------|
||-----------------------|--------------------|
||------4-----4-5--------|--------5-4-----4-5-|
||-0----2-0-0-2-3-0---0--|---0--0-3-2-0-0-2-3-|

[ Tab from: http://www.guitartabs.cc/tabs/m/megadeth/holy_wars_the_punishment_due_tab.html ]
  E5                                                                  G
       <                               <
|----------------------------------|----------------------------------------|
|----------------------------------|----------------------------------------|
|----[14]-----(14)-----------------|-(14)-----------------------------------|
|----------------------------------|----------------------------------------|
|----------------------------------|----------------------------------------|
|----------------------------------|----------------------------------------|
|
|                                                                       PM
|----------------------------------|----------------------------------------|
|----------------------------------|----------------------------------------|
|----------------------------------|----------------------------------------|
|----------------------------------|----------------------------------------|
|-2--------------------------------|----------------------------------2-----|
|-0-----------|----------3-0---|


  F#   G   F#      G            F#         G
    <                    <
|--------------------|--------------------------|
|--------------------|--------------------------|
|-(14)---------------|-[14]-----(14)-------(14)-|
|--------------------|--------------------------|
|--------------------|--------------------------|
|--------------------|--------------------------|
|
|        PM  PM|         PM-|        PM|
|--------------------|--------------------------|
|--------------------|--------------------------|
|--------------------|--------------------------|
|--------------------|--------------------------|
|---1--2---1-----1-2-|--------2---1------1---2--|
|---2--3-0-2-0-0-2-3-|---0--0-3---2--0-0-2---3--|


 Guitar Solo 4
  E5                                                 G5
|-17b18=======(17)---------|-17b18==========(17)---------|
|--------------------------|-----------------------------|
|--------------------------|-----------------------------|
|--------------------------|-----------------------------|
|--------------------------|-----------------------------|
|--------------------------|-----------------------------|
|
|         PM---------------------------------------|   PM
|--------------------------|-----------------------------|
|--------------------------|-----------------------------|
|--------------------------|-----------------------------|
|--------------------------|-----------------------------|
|--2-----------------------|-------------------------5---|
|--0------0-0---0--0-0-0-0-|--0-----0-0-0-0---0--0-0-3-0-|


  F#5   G5  F#5         G5            F#5         G5
|-17b18-------17b18-------|-17b18-------17b18--------|
|-------------------------|--------------------------|
|-------------------------|--------------------------|
|-------------------------|--------------------------|
|-------------------------|--------------------------|
|-------------------------|--------------------------|
|
|         PM   PM---|        PM---|      PM---|
|-------------------------|--------------------------|
|-------------------------|--------------------------|
|-------------------------|--------------------------|
|-------------------------|--------------------------|
|--4----5---4---------4-5-|---------5-4---------4-5--|
|--2----3-0-2--0----0-2-3-|--0----0-3-2--0----0-2-3--|


  E5
|-17p15p12-12------12-----------------------------------------------|
|---------------17------17p12---17p15p12---17p15p12---17p15p12------|
|----------------------------------------------------------------15-|
|-------------------------------------------------------------------|
|-------------------------------------------------------------------|
|-------------------------------------------------------------------|
|
|             PM-----------------------------------------------------
|-------------------------------------------------------------------|
|-------------------------------------------------------------------|
|-------------------------------------------------------------------|
|-------------------------------------------------------------------|
|--2----------------------------------------------------------------|
|--0----------0-------0-------0----------0----------0-----0----0----|


                                      G
|-------------------------------------------|
|-12----------------------------------------|
|----15p14p12-15p14p12-15-15p14p12----12----|
|----------------------------------14----14-|
|-------------------------------------------|
|-------------------------------------------|
|
|-------------------------------|         PM
|-------------------------------------------|
|-------------------------------------------|
|-------------------------------------------|
|-------------------------------------------|
|--------------------------------------2----|
|--0--0--------0--0--0--0--0-----0-----3--0-|


  F# G           F#                      G
|----------------------------------------------|
|----------------------------------------------|
|----------------------------------------------|
|-13-12-14p13p12-------13p12-------12----------|
|----------------14-14-------14p13----14p13p12-|
|----------------------------------------------|
|
|           PM          PM---|
|----------------------------------------------|
|----------------------------------------------|
|----------------------------------------------|
|----------------------------------------------|
|--1--2-----------1-----------------1-----2----|
|--2--3-----0-----2-----0-----0-----2-----3----|


                    F#                G
|------------------------------------------|
|------------------------------------------|
|------------------------------------------|
|------------------------------------------|
|-14p13p12----13p12----12----12----12-12-x-|
|----------14-------14----15----15-------x-|
|
|  PM---|               PM---|
|------------------------------------------|
|------------------------------------------|
|------------------------------------------|
|------------------------------------------|
|--------------2-----1--------------1--2---|
|--0-----0-----3-----2--0-----0-----2--3---|


  E5                                         G5
|--------------------|----------------------------|
|--------------------|----------------------------|
|--------------------|----------------------------|
|--------------------|----------------------------|
|-2------(2)-------0h|=3p0-0h3p0---3--------------|
|-0------(0)---3S5---|---------------5---5p4p3-5\-|
|
|    PM----------------------------------|     PM
|--------------------|----------------------------|
|--------------------|----------------------------|
|--------------------|----------------------------|
|--------------------|----------------------------|
|-2------------------|-----------------------5----|
|-0--0-0--0--0-0-0-0-|-0---0-0-0-0---0-0-0---3-0--|


  F#5G5          F#5                     G5
|-------------------------------------------------|
|-------------------------------------------------|
|-------------------------------------------------|
|----------------------12h13p12----12h13h14-12h14-|
|-12h13p12----12h13h14----------14----------------|
|----------14-------------------------------------|
|
|              PM          PM---|
|-------------------------------------------------|
|-------------------------------------------------|
|-------------------------------------------------|
|-------------------------------------------------|
|--4-----5-----------4-----------------4-----5----|
|--2-----3-----0-----2-----0-----0-----2-----3----|


                       F#5                        G5
|-------------------------------------------------------|
|----------------------------12h15-12h15p12-15-17p15p12-|
|-12h14-12h14-15p14p12-14p12----------------------------|
|-------------------------------------------------------|
|-------------------------------------------------------|
|-------------------------------------------------------|
|
|  PM---|                     PM---|
|-------------------------------------------------------|
|-------------------------------------------------------|
|-------------------------------------------------------|
|-------------------------------------------------------|
|--------------5--------4--------------------4-----5----|
|--0-----0-----3--------2-----0-----0--------2-----3----|


  E5
|-------------12h15h17------------12h15h17------------|
|-17-12h15h17------------12h15h17------------12h15h17-|
|-----------------------------------------------------|
|-----------------------------------------------------|
|-----------------------------------------------------|
|-----------------------------------------------------|
|
|              PM--------------------------------------
|-----------------------------------------------------|
|-----------------------------------------------------|
|-----------------------------------------------------|
|-----------------------------------------------------|
|--2--------------------------------------------------|
|--0-----------0-------0-----0-----0-------0--0--0----|


                                          G
|-12h15h17------------12h15h17------------12h15h17-12h15--|
|------------12h15h17------------12h15h17-----------------|
|---------------------------------------------------------|
|---------------------------------------------------------|
|---------------------------------------------------------|
|---------------------------------------------------------|
|
|-----------------------------------|               PM
|---------------------------------------------------------|
|---------------------------------------------------------|
|---------------------------------------------------------|
|---------------------------------------------------------|
|------------------------------------------2--------------|
|--0-------0-----0--0--0-------0--0--0-----3--------0-----|


  F#    G      F#                             G
|-17b18r==(17)---12-17p15p12-(12)----------------------|
|---------------------------------17p15p12-12-17p15p12-|
|------------------------------------------------------|
|------------------------------------------------------|
|------------------------------------------------------|
|------------------------------------------------------|
|
|           PM       PM------|
|------------------------------------------------------|
|------------------------------------------------------|
|------------------------------------------------------|
|------------------------------------------------------|
|--1----2------1----------------------1--------2-------|
|--2----3---0--2-----0---------0------2--------3-------|


                    F#                      G
|-------------------------------------------------|
|-------------------------------------------15-12-|
|-15-15-14-12-------------------------12-12-------|
|-------------15-15-14-12\---14-14-14-------------|
|-------------------------------------------------|
|-------------------------------------------------|
|
|  PM---|                  PM---|
|-------------------------------------------------|
|-------------------------------------------------|
|-------------------------------------------------|
|-------------------------------------------------|
|--------------2-----1-----------------1-----2----|
|--0-----0-----3-----2-----0-----0-----2-----3----|


  E5
|-------------------------------------------------|
|-15p12----12-15p12-17p12----12-15p12-17p12----12-|
|-------15----------------15----------------15----|
|-------------------------------------------------|
|-------------------------------------------------|
|-------------------------------------------------|
|
|              PM----------------------------------
|-------------------------------------------------|
|-------------------------------------------------|
|-------------------------------------------------|
|-------------------------------------------------|
|--2----------------------------------------------|
|--0-----------0-----0-----0-----0-----0--0--0----|


                                      G5
|-------------------------------------------------|
|-17p12----12-15p12-17p12----12-15p12-17p12----12-|
|-------15----------------15----------------15----|
|-------------------------------------------------|
|-------------------------------------------------|
|-------------------------------------------------|
|
|-------------------------------|            PM
|-------------------------------------------------|
|-------------------------------------------------|
|-------------------------------------------------|
|-------------------------------------------------|
|--------------------------------------5----------|
|--0-----0-----0--0--0-----0--0--0-----3-----0----|


  F#5   G5          F#5                     G5
|-------------------------------------------------|
|-17p12----12-15p12-17p12----12-15p12-17p12----12-|
|-------15----------------15----------------15----|
|-------------------------------------------------|
|-------------------------------------------------|
|-------------------------------------------------|
|
|              PM          PM---|
|-------------------------------------------------|
|-------------------------------------------------|
|-------------------------------------------------|
|-------------------------------------------------|
|--4-----5-----------4-----------------4-----5----|
|--2-----3-----0-----2-----0-----0-----2-----3----|


                    F#5                     G5
|-------------------------------------------------|
|-17p12----12-15p12-17p12----12-15p12-17p12----12-|
|-------15----------------15----------------15----|
|-------------------------------------------------|
|-------------------------------------------------|
|-------------------------------------------------|
|
|  PM---|                  PM---|
|-------------------------------------------------|
|-------------------------------------------------|
|-------------------------------------------------|
|-------------------------------------------------|
|--------------5-----4-----------------4-----5----|
|--0-----0-----3-----2-----0-----0-----2-----3----|


  E5
|-------------------------------------------------|
|-15p12----12-17p12----12-15p12----12-17p12----12-|
|-------15----------15----------15----------15----|
|-------------------------------------------------|
|-------------------------------------------------|
|-------------------------------------------------|
|
|              PM----------------------------------
|-------------------------------------------------|
|-------------------------------------------------|
|-------------------------------------------------|
|-------------------------------------------------|
|--2----------------------------------------------|
|--0-----------0-----0-----0-----0-----0--0--0----|


                                      G
|-------------------------------------------------|
|-15p12----12-17p12----12-15p12----12-17p12-12-12-|
|-------15----------15----------15----------------|
|-------------------------------------------------|
|-------------------------------------------------|
|-------------------------------------------------|
|
|-------------------------------|            PM
|-------------------------------------------------|
|-------------------------------------------------|
|-------------------------------------------------|
|-------------------------------------------------|
|--------------------------------------2----------|
|--0-----0-----0--0--0-----0--0--0-----3-----0----|


  F#    G        F#                   G
|-------------------------------------------|
|-17p15p12----12-17p15p12----12-17p15p12----|
|----------15-------------15-------------15-|
|-------------------------------------------|
|-------------------------------------------|
|-------------------------------------------|
|
|              PM       PM|
|-------------------------------------------|
|-------------------------------------------|
|-------------------------------------------|
|-------------------------------------------|
|--1-----2--------1--------------1-----2----|
|--2-----3-----0--2-----0--0-----2-----3----|


              F#                   G
|-----------------------------------------|
|-12-17p15p12----12-17p15p12----12-12-17--|
|-------------15-------------15-----------|
|-----------------------------------------|
|-----------------------------------------|
|-----------------------------------------|
|
|  PM|               PM---|
|-----------------------------------------|
|-----------------------------------------|
|-----------------------------------------|
|-----------------------------------------|
|-----------2--1-----------------1--2-----|
|--0--0-----3--2-----0-----0-----2--3-----|


  E5
|-------------------------------------------------|
|-17p15p12----17p15p12----17p15p12----17p15p12----|
|----------12----------12----------12----------12-|
|-------------------------------------------------|
|-------------------------------------------------|
|-------------------------------------------------|
|
|              PM----------------------------------
|-------------------------------------------------|
|-------------------------------------------------|
|-------------------------------------------------|
|-------------------------------------------------|
|--2----------------------------------------------|
|--0-----------0-----0-----0-----0-----0--0--0----|


                                            G5
|-------------------------------------------------|
|-18p16p13----18p16p13----18p16p13----18p16p13----|
|----------13----------13----------13----------13-|
|-------------------------------------------------|
|-------------------------------------------------|
|-------------------------------------------------|
|
|-------------------------------|            PM
|-------------------------------------------------|
|-------------------------------------------------|
|-------------------------------------------------|
|-------------------------------------------------|
|--------------------------------------5----------|
|--0-----0-----0--0--0-----0--0--0-----3-----0----|


  F#5   G5          F#5               F#5   G5
|-------------------------------------------------|
|-19p17p14----19p17p14----19p17p14----19p17p14----|
|----------14----------14----------14----------14-|
|-------------------------------------------------|
|-------------------------------------------------|
|-------------------------------------------------|
|
|              PM          PM---|
|-------------------------------------------------|
|-------------------------------------------------|
|-------------------------------------------------|
|-------------------------------------------------|
|--4-----5-----------4-----------------4-----5----|
|--2-----3-----0-----2-----0-----0-----2-----3----|


                    F#5                     G5
|-------------------------------------------------|
|-20p18p15----20p18p15----20p18p15----20p18p15----|
|----------15----------15----------15----------15-|
|-------------------------------------------------|
|-------------------------------------------------|
|-------------------------------------------------|
|
|  PM---|                  PM---|
|-------------------------------------------------|
|-------------------------------------------------|
|-------------------------------------------------|
|-------------------------------------------------|
|--------------5-----4-----------------4-----5----|
|--0-----0-----3-----2-----0-----0-----2-----3----|


  E5
|-------------------------------------------------|
|-21p19p16----21p19p16----22p20p17----22p20p17----|
|----------16----------16----------17----------17-|
|-------------------------------------------------|
|-------------------------------------------------|
|-------------------------------------------------|
|
|              PM----------------------------------
|-------------------------------------------------|
|-------------------------------------------------|
|-------------------------------------------------|
|-------------------------------------------------|
|--2----------------------------------------------|
|--0-----------0-----0-----0-----0-----0--0--0----|


                                            G
|----------------------------------------------22b24==|
|-23p21p18----23p21p18----24p22p19----24p22p19--------|
|----------18----------18----------19-----------------|
|-----------------------------------------------------|
|-----------------------------------------------------|
|-----------------------------------------------------|
|
|-------------------------------|            PM
|-----------------------------------------------------|
|-----------------------------------------------------|
|-----------------------------------------------------|
|-----------------------------------------------------|
|--------------------------------------2--------------|
|--0-----0-----0--0--0-----0--0--0-----3-----0--------|


  F#   G   F#           G           F#        G
|-(22)-------22b24========|=22---22---22---22-(22)r\-||
|-------------------------|--------------------------||
|-------------------------|--------------------------||
|-------------------------|--------------------------||
|-------------------------|--------------------------||
|-------------------------|--------------------------||
|
|        PM   PM----|        PM|       PM|
|-------------------------|--------------------------||
|-------------------------|--------------------------||
|-------------------------|--------------------------||
|-------------------------|--------------------------||
|---1--2---1----------1-2-|-------2-1-------1---2----||
|---2--3-0-2--0-----0-2-3-|--0-0--3-2--0-0--2---3----||


 Verse 7/Outro
  N.C.                                            B5VII
  Gtr IV
                                                   \0.5____
|--------------------------|------------------------------|
|--------------------------|------------------------------|
|--------------------------|------------------------------|
|--------------------------|------------------------------|
|--------------------------|------------------------------|
|-0------------------------|-(0)------------------(0)-----|
|
| Gtr II
|     PM--|      PM------|        PM--|     PM--|
|--------------------------|------------------------------|
|--------------------------|------------------------------|
|--------------------------|------------------------------|
|--------------------------|------------------------------|
|-5h7-------10p7-----------|--5h7-------5h7--------9------|
|-----0-0-0------0-0-0-0-0-|------0-0-0-----0-0-0--7------|


  N.C.                                                 B5VII
   \1.5____________________________________________________
|-------------------------------|-------------------------|
|-------------------------------|-------------------------|
|-------------------------------|-------------------------|
|-------------------------------|-------------------------|
|-------------------------------|-------------------------|
|-(0)---------------------------|-(0)---------------------|
|
|          PM--|      PM------|        PM--|     PM--|
|-------------------------------|-------------------------|
|-------------------------------|-------------------------|
|-------------------------------|-------------------------|
|-------------------------------|-------------------------|
|--5h====7-------10p7-----------|--5h7-------5h7-------9--|
|----------0-0-0------0-0-0-0-0-|------0-0-0-----0-0-0-7--|


  N.C.                                                 B5VII
   \3.5____________________________/
|-------------------------------|-------------------------|
|-------------------------------|-------------------------|
|-------------------------------|-------------------------|
|-------------------------------|-------------------------|
|-------------------------------|-------------------------|
|-(0)---------------------------|-(0)---------------------|
|
|          PM--|      PM------|        PM--|     PM--|
|-------------------------------|-------------------------|
|-------------------------------|-------------------------|
|-------------------------------|-------------------------|
|-------------------------------|-------------------------|
|--5h====7-------10p7-----------|--5h7-------5h7-------9--|
|----------0-0-0------0-0-0-0-0-|------0-0-0-----0-0-0-7--|


  N.C.                                             B5VII
|---------------------------|-------------------------|
|---------------------------|-------------------------|
|---------------------------|-------------------------|
|---------------------------|-------------------------|
|---------------------------|-------------------------|
|-(0)-----------------------|-(0)---------------------|
|
|      PM--|      PM------|        PM--|     PM--|
|---------------------------|-------------------------|
|---------------------------|-------------------------|
|---------------------------|-------------------------|
|---------------------------|-------------------------|
|--5h7-------10p7-----------|--5h7-------5h7-------9--|
|------0-0-0------0-0-0-0-0-|------0-0-0-----0-0-0-7--|


  N.C.
  Gtr I
|-----------------------------------------|
|-----------------------------------------|
|-----------------------------------------|
|---------12-------------------------12---|
|-/10------------10-------------10--------|
|------------------------12---------------|
|
| Gtr II
|       PM-----|          PM------------|
|-----------------------------------------|
|-----------------------------------------|
|-----------------------------------------|
|-----------------------------------------|
|---5h7-------------10p7------------------|
|-------0----0-0----------0-0-0----0----0-|


                                 B5VII
|--------------------------------------|
|--------------------------------------|
|--------------------------------------|
|--------14----------------------------|
|-12--------------------------14-------|
|---------------12-----11----------11--|
|
|      PM-----|         PM--|
|--------------------------------------|
|--------------------------------------|
|--------------------------------------|
|--------------------------------------|
|--5h7-------------5h7-----------9-----|
|------0----0-0---------0-0-0----7-----|


    N.C.                                                  B5VII
    ~~~~~~~~~~~~~~~~~~~~~~~~~~~~~~~~~~~~~~~~~~~~~~~~~~
|--------------------------------|-------------------------------|
|--------------------------------|-------------------------------|
|--------------------------------|-------------------------------|
|--------------------------------|-------------------------------|
|-5s7--------------(7)-------(7)-|-(7)------------(7)-------(7)\-|
|--------------------------------|-------------------------------|
|
|       PM--|       PM-------|          PM--|      PM---|
|--------------------------------|-------------------------------|
|--------------------------------|-------------------------------|
|--------------------------------|-------------------------------|
|--------------------------------|-------------------------------|
|---5h7-------10p7---------------|--5h7-------5h7---------9------|
|-------0-0-0-------0--0-0-0--0--|------0-0-0------0--0-0-7------|


  N.C.                                                                   B5VII
|-----------------------------------------|------------------------------------|
|-----------------------------------------|------------------------------------|
|-----------------------------------------|------------------------------------|
|---------12-------------------------12---|--------------13----------------12--|
|-/10------------10-------------10--------|--------9-------------------9-------|
|------------------------12---------------|-11------------------10-------------|
|
|       PM-----|          PM------------|        PM----|         PM--|
|-----------------------------------------|------------------------------------|
|-----------------------------------------|------------------------------------|
|-----------------------------------------|------------------------------------|
|-----------------------------------------|------------------------------------|
|---5h7-------------10p7------------------|--5h7------------5h7----------9-----|
|-------0----0-0----------0-0-0----0----0-|------0---0-0---------0-0-0---7-----|


    N.C.                                                  B5VII
    ~~~~~~~~~~~~~~~~~~~~~~~~~~~~~~~~~~~~~~~~~~~~~~~~~~
|--------------------------------|-------------------------------|
|--------------------------------|-------------------------------|
|--------------------------------|-------------------------------|
|--------------------------------|-------------------------------|
|-5s7--------------(7)-------(7)-|-(7)------------(7)-------(7)\-|
|--------------------------------|-------------------------------|
|
|       PM--|       PM-------|          PM--|      PM---|
|--------------------------------|-------------------------------|
|--------------------------------|-------------------------------|
|--------------------------------|-------------------------------|
|--------------------------------|-------------------------------|
|---5h7-------10p7---------------|--5h7-------5h7---------9------|
|-------0-0-0-------0--0-0-0--0--|------0-0-0------0--0-0-7------|


  N.C.
|-----------------------------------------|
|-----------------------------------------|
|-----------------------------------------|
|---------12-------------------------12---|
|-/10------------10-------------10--------|
|------------------------12---------------|
|
|       PM-----|          PM------------|
|-----------------------------------------|
|-----------------------------------------|
|-----------------------------------------|
|-----------------------------------------|
|---5h7-------------10p7------------------|
|-------0----0-0----------0-0-0----0----0-|


                                 B5VII
|--------------------------------------|
|--------------------------------------|
|--------------------------------------|
|--------14----------------------------|
|-12--------------------------14-------|
|---------------12-----11----------11--|
|
|      PM-----|         PM--|
|--------------------------------------|
|--------------------------------------|
|--------------------------------------|
|--------------------------------------|
|--5h7-------------5h7-----------9-----|
|------0----0-0---------0-0-0----7-----|


    N.C.                                                  B5VII
    ~~~~~~~~~~~~~~~~~~~~~~~~~~~~~~~~~~~~~~~~~~~~~~~~~~
|--------------------------------|-------------------------------|
|--------------------------------|-------------------------------|
|--------------------------------|-------------------------------|
|--------------------------------|-------------------------------|
|-5s7--------------(7)-------(7)-|-(7)------------(7)-------(7)\-|
|--------------------------------|-------------------------------|
|
|       PM--|       PM-------|          PM--|      PM---|
|--------------------------------|-------------------------------|
|--------------------------------|-------------------------------|
|--------------------------------|-------------------------------|
|--------------------------------|-------------------------------|
|---5h7-------10p7---------------|--5h7-------5h7---------9------|
|-------0-0-0-------0--0-0-0--0--|------0-0-0------0--0-0-7------|


  N.C.                                                   B5VII
|-----------------------------------------|------------------|
|-----------------------------------------|------------------|
|-----------------------------------------|------------------|
|---------12-------------------------12---|------13-------12-|
|-/10------------10-------------10--------|----9-------9-----|
|------------------------12---------------|-11------10-------|
|
|       PM-----|          PM------------|
|-----------------------------------------|------------------|
|-----------------------------------------|------------------|
|-----------------------------------------|-------8--------7-|
|-----------------------------------------|------------------|
|---5h7-------------10p7------------------|--6-9-----5-8-----|
|-------0----0-0----------0-0-0----0----0-|------------------|


    N.C.                                                  B5VII
    ~~~~~~~~~~~~~~~~~~~~~~~~~~~~~~~~~~~~~~~~~~~~~~~~~~
|--------------------------------|-------------------------------|
|--------------------------------|-------------------------------|
|--------------------------------|-------------------------------|
|--------------------------------|-------------------------------|
|-5s7--------------(7)-------(7)-|-(7)------------(7)-------(7)\-|
|--------------------------------|-------------------------------|
|
|       PM--|       PM-------|          PM--|      PM---|
|--------------------------------|-------------------------------|
|--------------------------------|-------------------------------|
|--------------------------------|-------------------------------|
|--------------------------------|-------------------------------|
|---5h7-------10p7---------------|--5h7-------5h7---------9------|
|-------0-0-0-------0--0-0-0--0--|------0-0-0------0--0-0-7------|


  N.C.                                                 B5VII
  Gtr I
      PM--|      PM------------|       PM--|     PM--|
|--------------------------------|-------------------------|
|--------------------------------|-------------------------|
|--------------------------------|-------------------------|
|--------------------------------|-------------------------|
|-5h7-------10p7-----------------|-5h7-------5h7-------9---|
|-----0-0-0------0-0-0-0-0-0-0-0-|-----0-0-0-----0-0-0-7---|
|
| Gtr II
|     PM--|      PM----------|         PM--|     PM--|
|--------------------------------|-------------------------|
|--------------------------------|-------------------------|
|--------------------------------|-------------------------|
|--------------------------------|-------------------------|
|-5h7-------10p7-----------------|-5h7-------5h7-------9---|
|-----0-0-0------0-0-0---0---0---|-----0-0-0-----0-0-0-7---|


  N.C.
  Gtrs I, II
      PM--|      PM------------|       PM--|      PM------------|
|--------------------------------|--------------------------------|
|--------------------------------|--------------------------------|
|--------------------------------|--------------------------------|
|--------------------------------|--------------------------------|
|-5h7-------10p7-----------------|-5h7-------10p7-----------------|
|-----0-0-0------0-0-0-0-0-0-0-0-|-----0-0-0------0-0-0-0-0-0-0-0-|
|
|     PM--|      PM------------|       PM--|      PM------------|
|--------------------------------|--------------------------------|
|--------------------------------|--------------------------------|
|--------------------------------|--------------------------------|
|--------------------------------|--------------------------------|
|-5h7-------10p7-----------------|-5h7-------10p7-----------------|
|-----0-0-0------0-0-0-0-0-0-0-0-|-----0-0-0------0-0-0-0-0-0-0-0-|


  N.C.                                                    G5
      PM--|      PM------------|       PM--|      PM----|
|--------------------------------|----------------------------|
|--------------------------------|----------------------------|
|--------------------------------|----------------------------|
|--------------------------------|----------------------------|
|-5h7-------10p7-----------------|-5h7-------10p7---------5---|
|-----0-0-0------0-0-0-0-0-0-0-0-|-----0-0-0------0-0-0-0-3-0-|
|
|     PM--|      PM------------|       PM--|      PM----|
|--------------------------------|----------------------------|
|--------------------------------|----------------------------|
|--------------------------------|----------------------------|
|--------------------------------|----------------------------|
|-5h7-------10p7-----------------|-5h7-------10p7---------5---|
|-----0-0-0------0-0-0-0-0-0-0-0-|-----0-0-0------0-0-0-0-3-0-|


  F#G5  F#5     G5        F#5   G5
  Gtrs I, II
      PM  PM|       PM|     PM|   PM
|-----------------|-----------------|
|-----------------|-----------------|
|-----------------|-----------------|
|-----------------|-----------------|
|-4-5---4-----4-5-|-----5-4-----5---|
|-2-3-0-2-0-0-2-3-|-0-0-3-2-0-0-3-0-|


  F#G   F#      G         F#    G
      PM  PM|       PM|     PM|   PM
|-----------------|-----------------|
|-----------------|-----------------|
|-----------------|-----------------|
|-----------------|-----------------|
|-1-2---1-----1-2-|-----2-1-----2---|
|-2-3-0-2-0-0-2-3-|-0-0-3-2-0-0-3-0-|


  F#G5  F#5     G5      G5F#5     N.C.        E5
                   5/4                       4/4
      PM  PM|       PM|     PM|
|-----------------|-------------------------|----------*|
|-----------------|-------------------------|----------*|
|-----------------|-------------------------|----------*|
|-----------------|-------------------------|-2--------*|
|-4-5---4-----4-5-|-----5-4-----4-5-6-7-----|-2--------*|
|-2-3-0-2-0-0-2-3-|-0-0-3-2-0-0-2-------7-0-|-0--------*|
			
Comments