Megadeth - Hanger 18 Chords & Tabs

 

Hanger 18 Chords & Tabs

Megadeth Chords & Tabs

Version: 1 Type: Tab 6 ratings
1 star 2 stars 3 stars 4 stars 5 stars
comments

Hanger 18 Tab

   
 Megadeth
Hanger 18 
Gtr I (E A D G B E) - 'Dave Mustaine'
Gtr II (E A D G B E) - 'Marty Friedman'

 Intro
  Q=160
  Dm                                  Bb/D
 4/4
  Gtrs I, II
|-1-1-1-1-1-1-1-1-|-1-1-1-1-1-1-1-1-|-1-1-1-1-1-1-1-1-|-1-1-1-1-1-1-1-1-|
|-3-3-3-3-3-3-3-3-|-3-3-3-3-3-3-3-3-|-3-3-3-3-3-3-3-3-|-3-3-3-3-3-3-3-3-|
|-2-2-2-2-2-2-2-2-|-2-2-2-2-2-2-2-2-|-3-3-3-3-3-3-3-3-|-3-3-3-3-3-3-3-3-|
|-0-0-0-0-0-0-0-0-|-0-0-0-0-0-0-0-0-|-0-0-0-0-0-0-0-0-|-0-0-0-0-0-0-0-0-|
|-----------------|-----------------|-----------------|-----------------|
|-----------------|-----------------|-----------------|-----------------|


  Dm6                                 Amadd11/D
|-1-1-1-1-1-1-1-1-|-1-1-1-1-1-1-1-1-|-5-5-5-5-5-5-5-5-|-5-5-5-5-5-5-5-5-|
|-3-3-3-3-3-3-3-3-|-3-3-3-3-3-3-3-3-|-3-3-3-3-3-3-3-3-|-3-3-3-3-3-3-3-3-|
|-4-4-4-4-4-4-4-4-|-4-4-4-4-4-4-4-4-|-5-5-5-5-5-5-5-5-|-5-5-5-5-5-5-5-5-|
|-0-0-0-0-0-0-0-0-|-0-0-0-0-0-0-0-0-|-0-0-0-0-0-0-0-0-|-0-0-0-0-0-0-0-0-|
|-----------------|-----------------|-----------------|-----------------|
|-----------------|-----------------|-----------------|-----------------|


  F/D                                 Bb/DVI
|-5-5-5-5-5-5-5-5-|-5-5-5-5-5-5-5-5-|-6-6-6-6-6-6-6-6-|-6-6-6-6-6-6-6-6-|
|-6-6-6-6-6-6-6-6-|-6-6-6-6-6-6-6-6-|-6-6-6-6-6-6-6-6-|-6-6-6-6-6-6-6-6-|
|-7-7-7-7-7-7-7-7-|-7-7-7-7-7-7-7-7-|-7-7-7-7-7-7-7-7-|-7-7-7-7-7-7-7-7-|
|-----------------|-----------------|-----------------|-----------------|
|-----------------|-----------------|-----------------|-----------------|
|-----------------|-----------------|-----------------|-----------------|


  Dm6VI                               C/E
|-7-7-7-7-7-7-7-7-|-7-7-7-7-7-7-7-7-|-8-8-8-8-8-8-8-8-|-8-8-8-8-8-8-8-8-|
|-6-6-6-6-6-6-6-6-|-6-6-6-6-6-6-6-6-|-8-8-8-8-8-8-8-8-|-8-8-8-8-8-8-8-8-|
|-7-7-7-7-7-7-7-7-|-7-7-7-7-7-7-7-7-|-9-9-9-9-9-9-9-9-|-9-9-9-9-9-9-9-9-|
|-----------------|-----------------|-----------------|-----------------|
|-----------------|-----------------|-----------------|-----------------|
|-----------------|-----------------|-----------------|-----------------|


  Q=159
  A5                              Bb5
  Gtr I
|-----1----5-------|------------|-----1----6-------|--------|
|---3--------6-----|------------|---3--------6-----|--------|
|-2-----2/-----7---|------------|-3-----3\-----7---|--------|
|----------------0-|-(0)--------|----------------0-|-(0)----|
|------------------|------------|------------------|--------|
|------------------|------------|------------------|--------|
|
| Gtr II
|------------------|------------|------------------|--------|
|------------------|------------|------------------|--------|
|------------------|------------|------------------|--------|
|-2----------------|-(2)--------|-3----------------|-(3)----|
|-0----------------|-(0)--------|-1----------------|-(1)----|
|------------------|------------|------------------|--------|


  B5                              C5
|-----1----7-------|------------|-----5----8-------|--------|
|---3--------6-----|------------|---3--------8-----|--------|
|-4-----4\-----7---|------------|-5-----5\-----9---|--------|
|----------------0-|-(0)--------|----------------0-|-(0)----|
|------------------|------------|------------------|--------|
|------------------|------------|------------------|--------|
|
|------------------|------------|------------------|--------|
|------------------|------------|------------------|--------|
|------------------|------------|------------------|--------|
|-4----------------|-(4)--------|-5----------------|-(5)----|
|-2----------------|-(2)--------|-3----------------|-(3)----|
|------------------|------------|------------------|--------|


  D5       D5                     Bb/DV    Bb/DV
|-----1----5-------|------------|-----1----6-------|--------|
|---3--------6-----|------------|---3--------6-----|--------|
|-2-----2/-----7---|------------|-3-----3\-----7---|--------|
|----------------0-|-(0)--------|----------------0-|-(0)----|
|------------------|------------|------------------|--------|
|------------------|------------|------------------|--------|
|
|------------------|------------|------------------|--------|
|------------------|------------|------------------|--------|
|------------------|------------|------------------|--------|
|-7--------7-------|-(7)--------|-8--------8-------|-(8)----|
|-5--------5-------|-(5)--------|-5--------5-------|-(5)----|
|------------------|------------|------------------|--------|


                                                       Q=160
  Bm/D     Bm/D                   Csus2/D              N.C.
|-----1----7-------|------------|------5-----8-------|--------------------|
|---3--------6-----|------------|----3---------8-----|--6-5--3------------|
|-4-----4\-----7---|------------|--5-----5\------9---|---------5-3--2-----|
|----------------0-|-(0)--------|------------------0-|----------------5-3-|
|------------------|------------|--------------------|--------------------|
|------------------|------------|--------------------|--------------------|
|
|------------------|------------|--------------------|--------------------|
|------------------|------------|--------------------|-10-8---------------|
|------------------|------------|--------------------|------10-9-7--------|
|-9--------9-------|-(9)--------|-10--------10-------|-------------10-9-7-|
|-5--------5-------|-(5)--------|--5---------5-------|--------------------|
|------------------|------------|--------------------|--------------------|


   Pre-Verse
    N.C.
      PM|   ~~~ PM|     PM|   ~~~ PM|     PM|   ~~~ PM|     PM|   ~~~ PM|
||------------------|-----------------|-----------------|-------------------||
||o-----------------|-----------------|-----------------|------------------o||
||--2------/7-------|-3------/7-------|-4------/7-------|-5------/7---------||
||----0-0-------0-0-|---0-0-------0-0-|---0-0-------0-0-|---0-0-------0-0---||
||o-----------------|-----------------|-----------------|------------------o||
||------------------|-----------------|-----------------|-------------------||
|
|   Gtr II
|     PM|   ~~~ PM|     PM|   ~~~ PM|     PM|   ~~~ PM|     PM|   ~~~ PM|
||------------------|-----------------|-----------------|-------------------||
||o-----------------|-----------------|-----------------|------------------o||
||--7-----/10-------|-7-----/10-------|-7-----/10-------|-9-----/12---------||
||----0-0-------0-0-|---0-0-------0-0-|---0-0-------0-0-|---0-0-------0-0---||
||o-----------------|-----------------|-----------------|------------------o||
||------------------|-----------------|-----------------|-------------------||


   Verse 1
    N.C.
      PM|   ~~~ PM|     PM|   ~~~ PM|     PM|   ~~~ PM|     PM|   ~~~ PM|
                                                                            3x
||------------------|-----------------|-----------------|-------------------||
||o-----------------|-----------------|-----------------|------------------o||
||--2------/7-------|-3------/7-------|-4------/7-------|-5------/7---------||
||----0-0-------0-0-|---0-0-------0-0-|---0-0-------0-0-|---0-0-------0-0---||
||o-----------------|-----------------|-----------------|------------------o||
||------------------|-----------------|-----------------|-------------------||
|
|     PM|   ~~~ PM|     PM|   ~~~ PM|     PM|   ~~~ PM|     PM|   ~~~ PM|
|                                                                           3x
||------------------|-----------------|-----------------|-------------------||
||o-----------------|-----------------|-----------------|------------------o||
||--7-----/10-------|-7-----/10-------|-7-----/10-------|-9-----/12---------||
||----0-0-------0-0-|---0-0-------0-0-|---0-0-------0-0-|---0-0-------0-0---||
||o-----------------|-----------------|-----------------|------------------o||
||------------------|-----------------|-----------------|-------------------||


 Chorus
  N.C.
                                                 7/8
        ~   PM|         ~   PM|         ~   PM|        PM~
|---------------|---------------|---------------|-----------------|
|---------------|---------------|---------------|-----------------|
|--7\---2-------|--7\---3-------|--7\---4-------|--7-5---5---(5)\-|
|-----------0-0-|-----------0-0-|-----------0-0-|------0----------|
|---------------|---------------|---------------|-----------------|
|---------------|---------------|---------------|-----------------|
|
|       ~   PM|         ~   PM|         ~   PM|        PM~
|---------------|---------------|---------------|-----------------|
|---------------|---------------|---------------|-----------------|
|-10\---7-------|-10\---7-------|-10\---7-------|-10-9---9---(9)\-|
|-----------0-0-|-----------0-0-|-----------0-0-|------0----------|
|---------------|---------------|---------------|-----------------|
|---------------|---------------|---------------|-----------------|


 Solo 1 (Marty Friedman)
  Q=158
  (D5/A)                         (Bb)
 4/4
  Gtr I
   PM----|   PM|        PM        PM-----|     PM------|     PM
|------------------------------|---------------------------------|
|------------------------------|---------------------------------|
|----------2---------2-------2-|-----------3---------------3---3-|
|--------0-------0-------------|---------0--------------0--------|
|--0---------0----------0------|--1------------1-------------1---|
|------------------------------|---------------------------------|
|
| Gtr II
|  ~~~~~~                                                  ~~
|------------------------------|---------------------------------|
|-15b17========(15)r---15b17---|-16pb18======(16)r(16)-----------|
|------------------------------|-----------------------14-17-----|
|------------------------------|---------------------------------|
|------------------------------|---------------------------------|
|------------------------------|---------------------------------|


  (Bm)                                      (Bb)
   PM|      PM------|           PM            PM-|        PM-------|            PM
|-----------------------------------------|-------------------------------------------------|
|-----------------------------------------|-------------------------------------------------|
|--------4----------------4--------4------|-------------3-------------------3-----3---------|
|-----0-------------0---------------------|--------0---------------0------------------------|
|--2--------2-------------------2---------|---1-----------1---------------------1-----------|
|-----------------------------------------|-------------------------------------------------|
|
|                                  ~~~~~~~~~~~~~~~~~~~~                         ~~
|-------15-17-17s20---17h20p17------------|-------------------------------------------------|
|------------------------------20-20pb22==|=(20)-(20)r-20---18b20====(18)r(18)--------------|
|-14-17-----------------------------------|------------------------------------19---(19)\---|
|-----------------------------------------|-------------------------------------------------|
|-----------------------------------------|-------------------------------------------------|
|-----------------------------------------|-------------------------------------------------|


 Interlude
  (D5/A)               (Bb)
  PM|    PM|    PM      PM|      PM|      PM
|--------------------|-------------------------|
|--------------------|-------------------------|
|------2------2----2-|--------3--------3-----3-|
|---0------0---------|-----0--------0----------|
|-0------0------0----|--1--------1--------1----|
|--------------------|-------------------------|
|
| PM|    PM|    PM      PM|      PM|      PM
|--------------------|-------------------------|
|--------------------|-------------------------|
|-----10-----10---10-|-------12-------12----12-|
|--------------------|-------------------------|
|-8-8----8-8----8----|-10-10----10-10----10----|
|--------------------|-------------------------|


  (Bm)                 (Csus2)
  PM|    PM|    PM     PM|   PM|   PM
|--------------------|-----------------|
|--------------------|-----------------|
|------4------4----4-|-----5-----5---5-|
|---0------0---------|---0-----0-------|
|-2------2------2----|-3-----3-----3---|
|--------------------|-----------------|
|
| PM|    PM|    PM     PM|   PM|   PM
|--------------------|-----------------|
|--------------------|-----------------|
|-----10-----10---10-|-----9-----9---9-|
|--------------------|-----------------|
|-8-8----8-8----8----|-7-7---7-7---7---|
|--------------------|-----------------|


 Solo 2 (Marty Friedman)
  (D5/A)
   PM---|            PM---|            PM
|-------------------------------------------------|
|-------------------------------------------------|
|--------------2-----------------2-----------2----|
|--------0-----------------0----------------------|
|--0-----------------0-----------------0----------|
|-------------------------------------------------|
|
|-17p13----------------13-17p13-17p13-17p13----13-|
|-------15----------15----------------------15----|
|----------14----14-------------------------------|
|-------------15----------------------------------|
|-------------------------------------------------|
|-------------------------------------------------|


  (Bb)
   PM---|            PM---|            PM
|-------------------------------------------------|
|-------------------------------------------------|
|--------------3-----------------3-----------3----|
|--------0-----------------0----------------------|
|--1-----------------1-----------------1----------|
|-------------------------------------------------|
|
|-18p13----------------13-17p13-15----13----------|
|-------15----------15-------------17----17p15p13-|
|----------14----14-------------------------------|
|-------------15----------------------------------|
|-------------------------------------------------|
|-------------------------------------------------|


  (Bm)
   PM---|            PM|       PM
|---------------------------------------|
|---------------------------------------|
|--------------4-------------4----4-----|
|--------0--------------0---------------|
|--2-----------------2---------2--------|
|---------------------------------------|
|
|                       ~~~~~
|-17p13----16p13----16-16b17-----20b22==|
|-------15-------15---------------------|
|---------------------------------------|
|---------------------------------------|
|---------------------------------------|
|---------------------------------------|


  (Bb)
    PM--|    PM---|         PM
|----------------------------------------|
|----------------------------------------|
|---------3-------------3------------3---|
|-------0----------0---------------------|
|---1--------1--------------1------------|
|----------------------------------------|
|
|                  ~~~~~~
|-(20)r-----20p17-22b24r==(22)b25==(22)r-|
|----------------------------------------|
|----------------------------------------|
|----------------------------------------|
|----------------------------------------|
|----------------------------------------|


 Interlude
  (D5/A)               (Bb)                      (Bm)
  PM|    PM|    PM      PM|      PM|      PM     PM|    PM|    PM
|--------------------|-------------------------|--------------------|
|--------------------|-------------------------|--------------------|
|------2------2----2-|--------3--------3-----3-|------4------4----4-|
|---0------0---------|-----0--------0----------|---0------0---------|
|-0------0------0----|--1--------1--------1----|-2------2------2----|
|--------------------|-------------------------|--------------------|
|
| PM|    PM|    PM      PM|      PM|      PM     PM|    PM|    PM
|--------------------|-------------------------|--------------------|
|--------------------|-------------------------|--------------------|
|-----10-----10---10-|-------12-------12----12-|-----10-----10---10-|
|--------------------|-------------------------|--------------------|
|-8-8----8-8----8----|-10-10----10-10----10----|-8-8----8-8----8----|
|--------------------|-------------------------|--------------------|


  N.C.
|--5-3-1--0-3-1--0---1--0---------------|
|------------------3------3-1--5-3-1----|
|-------------------------------------3-|
|---------------------------------------|
|---------------------------------------|
|---------------------------------------|
|
|---------------------------------------|
|---------------------------------------|
|-10-9-7----9-7------7------------------|
|--------10-----10-8---10-8-7-10-8-7----|
|------------------------------------10-|
|---------------------------------------|


 Pre-Verse
  Q=160
  N.C.
 4/4
  Gtr I
  ~
|-----------------|-----------------|-----------------|-----------------|
|-3---------------|-----------------|-----------------|-----------------|
|-----------------|-----------------|-----------------|-----------------|
|-----------------|-----------------|-----------------|-----------------|
|-----------------|-----------------|-----------------|-----------------|
|-----------------|-----------------|-----------------|-----------------|
|
| Gtr I
|   PM|   ~~~ PM|     PM|   ~~~ PM|     PM|   ~~~ PM|     PM|   ~~~ PM|
|-----------------|-----------------|-----------------|-----------------|
|-----------------|-----------------|-----------------|-----------------|
|-2------/7-------|-3------/7-------|-4------/7-------|-5------/7-------|
|---0-0-------0-0-|---0-0-------0-0-|---0-0-------0-0-|---0-0-------0-0-|
|-----------------|-----------------|-----------------|-----------------|
|-----------------|-----------------|-----------------|-----------------|
|
| Gtr II
|   PM|   ~~~ PM|     PM|   ~~~ PM|     PM|   ~~~ PM|     PM|   ~~~ PM|
|-----------------|-----------------|-----------------|-----------------|
|-----------------|-----------------|-----------------|-----------------|
|-7-----/10-------|-7-----/10-------|-7-----/10-------|-9-----/12-------|
|---0-0-------0-0-|---0-0-------0-0-|---0-0-------0-0-|---0-0-------0-0-|
|-----------------|-----------------|-----------------|-----------------|
|-----------------|-----------------|-----------------|-----------------|


  Gtr I
    PM|   ~~~ PM|     PM|   ~~~ PM|     PM|   ~~~ PM|     PM|   ~~~ PM|
|-----------------|-----------------|-----------------|-----------------|
|-----------------|-----------------|-----------------|-----------------|
|-2------/7-------|-3------/7-------|-4------/7-------|-5------/7-------|
|---0-0-------0-0-|---0-0-------0-0-|---0-0-------0-0-|---0-0-------0-0-|
|-----------------|-----------------|-----------------|-----------------|
|-----------------|-----------------|-----------------|-----------------|
|
| Gtr II
|   PM|   ~~~ PM|     PM|   ~~~ PM|     PM|   ~~~ PM|     PM|   ~~~ PM|
|-----------------|-----------------|-----------------|-----------------|
|-----------------|-----------------|-----------------|-----------------|
|-7-----/10-------|-7-----/10-------|-7-----/10-------|-9-----/12-------|
|---0-0-------0-0-|---0-0-------0-0-|---0-0-------0-0-|---0-0-------0-0-|
|-----------------|-----------------|-----------------|-----------------|
|-----------------|-----------------|-----------------|-----------------|


   Verse 2
    N.C.
   4/4
      PM|   ~~~ PM|     PM|   ~~~ PM|     PM|   ~~~ PM|     PM|   ~~~ PM|
                                                                            3x
||------------------|-----------------|-----------------|-------------------||
||o-----------------|-----------------|-----------------|------------------o||
||--2------/7-------|-3------/7-------|-4------/7-------|-5------/7---------||
||----0-0-------0-0-|---0-0-------0-0-|---0-0-------0-0-|---0-0-------0-0---||
||o-----------------|-----------------|-----------------|------------------o||
||------------------|-----------------|-----------------|-------------------||
|
|     PM|   ~~~ PM|     PM|   ~~~ PM|     PM|   ~~~ PM|     PM|   ~~~ PM|
|                                                                           3x
||------------------|-----------------|-----------------|-------------------||
||o-----------------|-----------------|-----------------|------------------o||
||--7-----/10-------|-7-----/10-------|-7-----/10-------|-9-----/12---------||
||----0-0-------0-0-|---0-0-------0-0-|---0-0-------0-0-|---0-0-------0-0---||
||o-----------------|-----------------|-----------------|------------------o||
||------------------|-----------------|-----------------|-------------------||


 Chorus
  N.C.
                                                 7/8
        ~   PM|         ~   PM|         ~   PM|        PM~
|---------------|---------------|---------------|-----------------|
|---------------|---------------|---------------|-----------------|
|--7\---2-------|--7\---3-------|--7\---4-------|--7-5---5---(5)\-|
|-----------0-0-|-----------0-0-|-----------0-0-|------0----------|
|---------------|---------------|---------------|-----------------|
|---------------|---------------|---------------|-----------------|
|
|       ~   PM|         ~   PM|         ~   PM|        PM~
|---------------|---------------|---------------|-----------------|
|---------------|---------------|---------------|-----------------|
|-10\---7-------|-10\---7-------|-10\---7-------|-10-9---9---(9)\-|
|-----------0-0-|-----------0-0-|-----------0-0-|------0----------|
|---------------|---------------|---------------|-----------------|
|---------------|---------------|---------------|-----------------|


 Solo 3 (Marty Friedman)
  Q=158
  (D5/A)                           (Bb)
 4/4
  Gtr I
   PM----|   PM|          PM        PM----|                  PM|        PM
|--------------------------------|--------------------------------------------|
|--------------------------------|--------------------------------------------|
|----------2---------2---------2-|------------------3---------------3-------3-|
|--------0-------0---------------|--------0----------------------0------------|
|--0---------0------------0------|--1------------------------1----------1-----|
|--------------------------------|--------------------------------------------|
|
| Gtr II
|  ~~~~~~~~~~~~~~~~~~
|--------------------------------|--------------------------------------------|
|-13b15========(13)r---15---17---|-16pb18r==(17)b18r==16b18====(16)r==(16)-15-|
|--------------------------------|--------------------------------------------|
|--------------------------------|--------------------------------------------|
|--------------------------------|--------------------------------------------|
|--------------------------------|--------------------------------------------|


  (Bm)                                    (Bb)
   PM----|   PM|            PM              PM-|      PM|           PM
|---------------------------------------|---------------------------------|
|---------------------------------------|---------------------------------|
|----------4----------4-----------4-----|----------3------3-------------3-|
|--------0-------0----------------------|------0--------0-----------------|
|--2---------2--------------2-----------|---1---------1-------------1-----|
|---------------------------------------|---------------------------------|
|
|  ~~~~~~~~~~~~~~~~~~                              ~~~~
|---------------------------------------|---------------------------------|
|-18b20========(18)r-18-15h18p15--------|---------------------------------|
|--------------------------------17b19==|=(17)---(17)-------(17)r-(17)\---|
|---------------------------------------|---------------------------------|
|---------------------------------------|---------------------------------|
|---------------------------------------|---------------------------------|


 Interlude
  (D5/A)               (Bb)
  PM|    PM|    PM      PM|      PM|      PM
|--------------------|-------------------------|
|--------------------|-------------------------|
|------2------2----2-|--------3--------3-----3-|
|---0------0---------|-----0--------0----------|
|-0------0------0----|--1--------1--------1----|
|--------------------|-------------------------|
|
| PM|    PM|    PM      PM|      PM|      PM
|--------------------|-------------------------|
|--------------------|-------------------------|
|-----10-----10---10-|-------12-------12----12-|
|--------------------|-------------------------|
|-8-8----8-8----8----|-10-10----10-10----10----|
|--------------------|-------------------------|


  (Bm)                 (Csus2)
  PM|    PM|    PM     PM|   PM|   PM
|--------------------|-----------------|
|--------------------|-----------------|
|------4------4----4-|-----5-----5---5-|
|---0------0---------|---0-----0-------|
|-2------2------2----|-3-----3-----3---|
|--------------------|-----------------|
|
| PM|    PM|    PM     PM|   PM|   PM
|--------------------|-----------------|
|--------------------|-----------------|
|-----10-----10---10-|-----9-----9---9-|
|--------------------|-----------------|
|-8-8----8-8----8----|-7-7---7-7---7---|
|--------------------|-----------------|


 Solo 4 (Marty Friedman)
  (D5/A)                                (Bb)
   PM----|       PM---|           PM     PM----|   PM|           PM
|-------------------------------------|------------------------------------|
|-------------------------------------|------------------------------------|
|------------2--------------2-------2-|----------3---------3----------3----|
|--------0-------------0--------------|--------0------0--------------------|
|--0-------------0----------------0---|--1---------1-------------1---------|
|-------------------------------------|------------------------------------|
|
|  ~~~~~~~~~~~~~~                        ~~~~~~
|-16b17====(16)r---13------------17---|-17pb18------------------13-15---17s|
|---------------------17-15-----------|--------------13-15---17------------|
|-----------------------------14------|------------------------------------|
|-------------------------------------|------------------------------------|
|-------------------------------------|------------------------------------|
|-------------------------------------|------------------------------------|


  (Bm)                                             (Bb)
   PM---|         PM------|                 PM       PM-|         PM-----|              PM
|------------------------------------------------|---------------------------------------------|
|------------------------------------------------|---------------------------------------------|
|--------------4--------------------4----------4-|-------------3--------------3-------------3--|
|--------0-----------------0---------------------|-------0-----------------0-------------------|
|--2--------------2-------------------------2----|---1------------1---------------------1------|
|------------------------------------------------|---------------------------------------------|
|
|                                                                 ~~~~~~~~~~~~~~~~~~~~
|-19p16-------------------------16-20b22==(20)r==|=(20)-20b22-20-20pb22==(20)---(20)r-(20)\----|
|-------18-------------------18------------------|---------------------------------------------|
|----------19-16----16-19-19---------------------|---------------------------------------------|
|----------------18------------------------------|---------------------------------------------|
|------------------------------------------------|---------------------------------------------|
|------------------------------------------------|---------------------------------------------|


 Interlude
  (D5/A)               (Bb)
  PM|    PM|    PM      PM|      PM|      PM
|--------------------|-------------------------|
|--------------------|-------------------------|
|------2------2----2-|--------3--------3-----3-|
|---0------0---------|-----0--------0----------|
|-0------0------0----|--1--------1--------1----|
|--------------------|-------------------------|
|
| PM|    PM|    PM      PM|      PM|      PM
|--------------------|-------------------------|
|--------------------|-------------------------|
|-----10-----10---10-|-------12-------12----12-|
|--------------------|-------------------------|
|-8-8----8-8----8----|-10-10----10-10----10----|
|--------------------|-------------------------|


  (Bm)                 (Csus2)
  PM|    PM|    PM     PM|   PM|   PM
|--------------------|-----------------|
|--------------------|-----------------|
|------4------4----4-|-----5-----5---5-|
|---0------0---------|---0-----0-------|
|-2------2------2----|-3-----3-----3---|
|--------------------|-----------------|
|
| PM|    PM|    PM     PM|   PM|   PM
|--------------------|-----------------|
|--------------------|-----------------|
|-----10-----10---10-|-----9-----9---9-|
|--------------------|-----------------|
|-8-8----8-8----8----|-7-7---7-7---7---|
|--------------------|-----------------|


  (C#)
  PM--|         PM---|        PM
|----------------------------------------|
|----------------------------------------|
|----------6--------------6--------6-----|
|-----0--------------0-------------------|
|-4-------------4-------------4----------|
|----------------------------------------|
|
| Gtr II
|---------------------------9---13p9-----|
|----------------------9-12----------12\-|
|-----------------10---------------------|
|------------9-11------------------------|
|---8---11-------------------------------|
|-9h=====================================|


 Solo 5 (Marty Friedman)
  Q=112
                              D5Eb5
  Gtr I
|-------------------------------------|
|-------------------------------------|
|--7----------------------------------|
|-----------------------------7-8-----|
|----5----5--5----5--8-5----5-5-6---5-|
|-------------------------------------|
|
| Gtr II
|       ~~                ~~
|-------------------------------------|
|-15----------------13----------------|
|-------------------------------------|
|------12------10--------10-------9---|
|-------------------------------------|
|-------------------------------------|


                                      D5 Eb5
|----------------------------------------------|
|----------------------------------------------|
|--7-------------------------------------------|
|--------------------------------------7-8-----|
|-----5-----5-----5-----5--8--5-----5--5-6--5--|
|----------------------------------------------|
|
|                                      ~~
|----------------------------------------------|
|-12s15p12-------------10------------------10--|
|-------------------------11h12p11-------------|
|----------15-12s10h12-------------13-12-------|
|----------------------------------------------|
|----------------------------------------------|


                                   D5 Eb5
|-----------------------------------------|
|-----------------------------------------|
|--7--------------------------------------|
|-----------------------------------7-8---|
|-----5-----5----5---5--8--5-----5--5-6-5-|
|-----------------------------------------|
|
|              ~~                   ~~
|-14s17p14--------------------------------|
|----------16----------15s20p16-----------|
|-------------17----11----------17--------|
|----------------------------------19-----|
|-----------------------------------------|
|-----------------------------------------|


|---------------------------------------------------|
|---------------------------------------------------|
|--7------------------------------------------------|
|--------------------------------------6p5----------|
|-----5-----5-----5-----5--8--5-----5--------8p==5--|
|---------------------------------------------------|
|
|                                      ~~~
|-------------11-15-14------------------------------|
|----------13----------13-16-15---------------------|
|-------12----------------------14-17-16---(16)\----|
|-12h13---------------------------------------------|
|---------------------------------------------------|
|---------------------------------------------------|


                                       D5Eb5
|-----------------------------------------------|
|-----------------------------------------------|
|---7-------------------------------------------|
|--------------------------------------7-8------|
|------5-----5-----5-----5--8--5-----5-5-6----5-|
|-----------------------------------------------|
|
|-/18-14-14-14-15-11-11-14-10-10-10-11-8-8-10-6-|
|-----------------------------------------------|
|-----------------------------------------------|
|-----------------------------------------------|
|-----------------------------------------------|
|-----------------------------------------------|


                                  D5     Eb5
|---------------------------------------------------|
|---------------------------------------------------|
|-7-------------------------------------------------|
|---------------------------------7------8----------|
|---5---5---5-------5-8-5-------5-5------6--5-------|
|---------------------------------------------------|
|
|                                 ~~~~~~~~~~~~~
|-6-6-8-5-5-6-5h6p5---5-----------------------------|
|-------------------8---8-8pb10r9-8pb10====(8)-(8)r-|
|---------------------------------------------------|
|---------------------------------------------------|
|---------------------------------------------------|
|---------------------------------------------------|


                                                       D5    Eb5
|------------------------------------------------------------------------|
|------------------------------------------------------------------------|
|-7----------------------------------------------------------------------|
|-------------------------------------------------------7----8-----------|
|-----5--------5-------5-------5--8----5----------5-----5----6---------5-|
|------------------------------------------------------------------------|
|
|                        ~~~~~~                                 ~~~~~~~
|------------------------------------------------------------------------|
|-7h8h==10p8p7-----7h8p==7-(7)---10h11h==13p11p10------10h11p==10-(10)---|
|----------------8----------------------------------12-------------------|
|------------------------------------------------------------------------|
|------------------------------------------------------------------------|
|------------------------------------------------------------------------|

[ Tab from: http://www.guitartabs.cc/tabs/m/megadeth/hanger_18_tab.html ]
|-----------------------------------------------------------------------|
|-----------------------------------------------------------------------|
|--7--------------------------------------------------------------------|
|----------------------------------------------6p=5--------6p===5-------|
|-------5----------5-------------5----------5--------8p=5---------8p5---|
|-----------------------------------------------------------------------|
|
|                                                          ~~~~~
|------------------------------------------------14-15-17-18b20---------|
|-13h15h==16p15p13------15p13------13-(13)-15-16------------------------|
|--------------------15-------15----------------------------------------|
|-----------------------------------------------------------------------|
|-----------------------------------------------------------------------|
|-----------------------------------------------------------------------|


    Q=116                      1.
    N.C.
    Gtrs I, II
                        PM|
||----------------------------|------------------------------||
||o---------------------------|-----------------------------o||
||----------------------------|------------------------------||
||--------4-----------------5-|-------4----------------------||
||o-----------------------5---|---------------------3p2-----o||
||--0h1s2----2--2-5-2-2-3-----|-0h1s2----2--2-5-2-2-----5p2--||


 2.
|---------------------------------|
|---------------------------------|
|---------------5p4-----6p5-------|
|-------4-----------7p4-----8p5---|
|---------------------------------|
|-0h1s2----2--2-------------------|


 Solo 6 (Marty Friedman)
  Q=112
                                            D5 Eb5
  Gtr I
|------------------------------------------------------------|
|------------------------------------------------------------|
|---7--------------------------------------------------------|
|--------------------------------------------7--8------------|
|------5-----5-----5-----5--8--5-------5-----5--6-------5----|
|------------------------------------------------------------|
|
| Gtr II
|-----------------------------------10---14-15p14-10---------|
|-----------10-13-10-15-14-15-10-13------------------13p==10-|
|-----11-12--------------------------------------------------|
|-/12--------------------------------------------------------|
|------------------------------------------------------------|
|------------------------------------------------------------|


                                          D5  Eb5
|-----------------------------------------------------|
|-----------------------------------------------------|
|---7-------------------------------------------------|
|------------------------------------------7---8------|
|------5-------5------5---5-----8----5--5--5---6----5-|
|-----------------------------------------------------|
|
|-----------------------------------------------------|
|-/22s14p10-13p==10s7---8-7h8p7s3b4=======(3)r(3)-----|
|-------------------------------------------------5---|
|-----------------------------------------------------|
|-----------------------------------------------------|
|-----------------------------------------------------|


                              D5 Eb5
|-----------------------------------------|
|-----------------------------------------|
|-7---------------------------------------|
|------------------------------7--8-------|
|---5----5----5---5-8-5-----5--5--6-----5-|
|-----------------------------------------|
|
|-------------------------/14p11----------|
|-----7-10-9-10-7h8p7------------13-------|
|-7h8-----------------8-7-----------14-11s|
|-----------------------------------------|
|-----------------------------------------|
|-----------------------------------------|


|--------------------------------------------------------------|
|--------------------------------------------------------------|
|--7-----------------------------------------------------------|
|------------------------------------------------6p5-----------|
|-----5-----5-----5-----5--8----5----------5-----------8p==5---|
|--------------------------------------------------------------|
|
|                                                ~~~
|---------------------------------17---------------------------|
|-------13-16-------13-16-15s16------16s15---------------------|
|-13h14-------13h14--------------------------17-16---(16)\-----|
|--------------------------------------------------------------|
|--------------------------------------------------------------|
|--------------------------------------------------------------|


                                      D5 Eb5
|-------------------------------------------------|
|-------------------------------------------------|
|--7----------------------------------------------|
|--------------------------------------7--8-------|
|-----5-----5-----5-----5--8--5-----5--5--6-----5-|
|-------------------------------------------------|
|
|-------------------------------------------------|
|-10s13-13-13-13s12-12-12-12s20-20-20-20s19-19-19-|
|-------------------------------------------------|
|-------------------------------------------------|
|-------------------------------------------------|
|-------------------------------------------------|


                                                          D5    Eb5
|---------------------------------------------------------------------------------|
|---------------------------------------------------------------------------------|
|--7------------------------------------------------------------------------------|
|----------------------------------------------------------7----8-----------------|
|-----5-----5-------5----------5-----8----5----------5-----5----6----------5------|
|---------------------------------------------------------------------------------|
|
|---------------------------------------------------------------------------------|
|-19s13-13-13-13h15p==13----13---15-12h13p==12----12---13-10h12p==10----10---12---|
|------------------------14--------------------14--------------------13-----------|
|---------------------------------------------------------------------------------|
|---------------------------------------------------------------------------------|
|---------------------------------------------------------------------------------|


                                                             D5    Eb5
|--------------------------------------------------------------------------------|
|--------------------------------------------------------------------------------|
|-7------------------------------------------------------------------------------|
|-------------------------------------------------------------7----8-------------|
|------5--------5---------5----------5----8---5---------5-----5----6---------5---|
|--------------------------------------------------------------------------------|
|
|-----------------------8---10-12p10p==8-10p8------10p8--------------8-----------|
|-8h10p==8----8---10-12-------------------------12--------12-10h12-----12p10p==8s|
|----------11--------------------------------------------------------------------|
|--------------------------------------------------------------------------------|
|--------------------------------------------------------------------------------|
|--------------------------------------------------------------------------------|


|-----------------------------------------------------------|
|-----------------------------------------------------------|
|-7---------------------------------------------------------|
|-------------------------------------6p=5-------6p5--------|
|------5---------5-------5---------5-------8p=5------8p5----|
|-----------------------------------------------------------|
|
|                                                ~~
|---10---10-------------------------------------------------|
|-7---------10p7-----7-----7--------------------------------|
|------------------9---7-----9b11====(9)r====(9)-7----------|
|-----------------------------------------------------------|
|-----------------------------------------------------------|
|-----------------------------------------------------------|


  N.C.
  Gtrs I, II
                      PM|
|---------------------------|-----------------------------|
|---------------------------|-----------------------------|
|---------------------------|-----------------------------|
|-------4-----------------5-|-------4---------------------|
|-----------------------5---|---------------------3p2-----|
|-0h1s2----2--2-5-2-2-3-----|-0h1s2----2--2-5-2-2-----5p2-|


                      PM|
|-----------------------------|
|-----------------------------|
|-----------------------------|
|-------4-----------------5---|
|-----------------------5-----|
|-0h1s2----2--2-5-2-2-3-------|


                                    Q=124
                                    N.C.            F#G5F#G5F#G5
                                    PM------------|
                                                                 4x
|-------------------------------||-------------------------------||
|-------------------------------||o-----------------------------o||
|---------------5p4-----6p5-----||-------------------------------||
|-------4-----------7p4-----8p5-||-------------------------------||
|-------------------------------||o-----------------4s5-4s5-4s5-o||
|-0h1s2----2--2-----------------||--3-2-0-2-3-5-3-2-2s3-2s3-2s3--||


 Solo 7 (Dave Mustaine)
  N.C.
  Gtr I
|-17-17-17-17-17-16-14-17-17-17-17-17-16-14-17-17-17-17-17-16-14-17-17---17-17-16-14--|
|-------------------------------------------------------------------------------------|
|-------------------------------------------------------------------------------------|
|-------------------------------------------------------------------------------------|
|-------------------------------------------------------------------------------------|
|-------------------------------------------------------------------------------------|
|
| Gtr II
|                                                                 PM---|
|-------------------------------------------------------------------------------------|
|-------------------------------------------------------------------------------------|
|-------------------------------------------------------------------------------------|
|--------------------4-------------------------------------------------------5--------|
|----------------------------------------------------------------------5--------------|
|--0h====1s====2--------------2-----------2--5-----------2-----2--3-------------------|


|-17-17---17-17-16---14-------------------------------------------------------------------------------|
|-----------------------17-17---17-17-16---14---------------------------------------------------------|
|---------------------------------------------16-16-15-15-14---14----14----------------------14----14-|
|-----------------------------------------------------------------16----16-16-16-16-14----14----14----|
|--------------------------------------------------------------------------------------16-------------|
|-----------------------------------------------------------------------------------------------------|
|
|-----------------------------------------------------------------------------------------------------|
|-----------------------------------------------------------------------------------------------------|
|-----------------------------------------------------------------------------------------------------|
|------------------4----------------------------------------------------------------------------------|
|------------------------------------------------------------------3p=======2-------------------------|
|--0h===1s====2---------------2----------2-----5--------2----2-----------------------5p=======2-------|


|----------------------------------------------------------------------------------------
|------------------------------------------------------16---------17-16---14-17-19p17p14-
|-14---------16---------14---------16------14-14h16s17----17h==18------------------------
|----16---16----16---16----16---16----16-------------------------------------------------
|----------------------------------------------------------------------------------------
|----------------------------------------------------------------------------------------
|
|                                                                  PM---|
|----------------------------------------------------------------------------------------
|----------------------------------------------------------------------------------------
|----------------------------------------------------------------------------------------
|------------------4----------------------------------------------------------5----------
|-----------------------------------------------------------------------5----------------
|--0h===1s====2---------------2----------2-----5--------2----2-----3---------------------


                                                                                     ~~~~~
|---------------14---17p14-14---17-14-19p==17p14-14---14-19b21-19p==17----19b21====(19)--|
|-14-14---14-17--------------------------------------------------------19----------------|
|----------------------------------------------------------------------------------------|
|----------------------------------------------------------------------------------------|
|----------------------------------------------------------------------------------------|
|----------------------------------------------------------------------------------------|
|
|----------------------------------------------------------------------------------------|
|----------------------------------------------------------------------------------------|
|----------------------------------------------5p===4-------------------6p=======5-------|
|------------------4--------------------------------------7p======4------------------8p5-|
|----------------------------------------------------------------------------------------|
|--0h===1s====2---------------2----------2-----------------------------------------------|


                      F#G5F#G5F#G5
 ~~~~~~~
|-(19)r---------------------------|
|---------------------------------|
|---------------------------------|
|---------------------------------|
|---------------------------------|
|---------------------------------|
|
|   PM--------------|
|---------------------------------|
|---------------------------------|
|---------------------------------|
|---------------------------------|
|---------------------4s5-4s5-4s5-|
|---3---2-0-2-3-5-3-2-2s3-2s3-2s3-|


                  F#G5F#G5F#G5
  Gtrs I, II
  PM------------|
|-----------------------------|
|-----------------------------|
|-----------------------------|
|-----------------------------|
|-----------------4s5-4s5-4s5-|
|-3-2-0-2-3-5-3-2-2s3-2s3-2s3-|


                  F#G5F#G5F#G5                  F#G5F#G5F#G5
  PM------------|               PM------------|
|-----------------------------|-----------------------------|
|-----------------------------|-----------------------------|
|-----------------------------|-----------------------------|
|-----------------------------|-----------------------------|
|-----------------4s5-4s5-4s5-|-----------------4s5-4s5-4s5-|
|-3-2-0-2-3-5-3-2-2s3-2s3-2s3-|-3-2-0-2-3-5-3-2-2s3-2s3-2s3-|


 Solo 8 (Marty Friedman)
  N.C.
  Gtr I
                                 PM|
|------------------------------------------|----------------------------------------------------|
|------------------------------------------|----------------------------------------------------|
|------------------------------------------|----------------------------------------------------|
|-----------4-------------------------5----|-----------4----------------------------------------|
|----------------------------------5-------|----------------------------------------3p2---------|
|--0h===1s2--------2----2--5-2-2-3---------|--0h===1s2--------2-----2--5--------2-2-----5p==2---|
|
| Gtr II
|                          ~~                                             ~~~~~~
|------------------------------------------|-22b24r======(22)---21p20----20pb21-----------(20)\-|
|-21b23r======(21)-------------------------|--------------------------20------------------------|
|--------------------18---21---------21-18-|----------------------------------------------------|
|------------------------------------------|----------------------------------------------------|
|------------------------------------------|----------------------------------------------------|
|------------------------------------------|----------------------------------------------------|


                                          PM---|
|-----------------------------------------------------------|
|-----------------------------------------------------------|
|-----------------------------------------------------------|
|----------4-----------------------------------------5------|
|----------------------------------------------5------------|
|--0h=1s=2-------2-----2--5----2----2-----3-----------------|
|
|------------13h15p10---------------------------------------|
|-14p10---------------13-10s9-10-13p==10h13p10h==13p10s9s10-|
|-------11-9------------------------------------------------|
|-----------------------------------------------------------|
|-----------------------------------------------------------|
|-----------------------------------------------------------|


|----------------------------------------------------------------------------------------|
|----------------------------------------------------------------------------------------|
|----------------------------------------5p===4----------------6p==5---------------------|
|--------------4------------------------------------7p===4-------------------8p=====5----|
|----------------------------------------------------------------------------------------|
|---0h=1s=2---------------2--------2-----------------------------------------------------|
|
|----------------------------------------------------------------------------------------|
|-----14-17p14------17p14------------14-17p14------17p14---------[17]pb19==(17)r-([17])\-|
|-/17------------17---------17-14h17------------17---------17-14-------------------------|
|----------------------------------------------------------------------------------------|
|----------------------------------------------------------------------------------------|
|----------------------------------------------------------------------------------------|


    N.C.            F#G5F#G5F#G5                  F#G5F#G5F#G5
    Gtrs I, II
    PM------------|               PM------------|
||------------------------------|------------------------------||
||o-----------------------------|-----------------------------o||
||------------------------------|------------------------------||
||------------------------------|------------------------------||
||o-----------------4s5-4s5-4s5-|-----------------4s5-4s5-4s5-o||
||--3-2-0-2-3-5-3-2-2s3-2s3-2s3-|-3-2-0-2-3-5-3-2-2s3-2s3-2s3--||


 Solo 9 (Dave Mustaine)
  N.C.
  Gtr I
|-21-17---14-17-14-14--------------------------------------------------------------------------|
|---------------------21-17-14---17-14-14-21---17-14-17-14-14---------------------21-17-14-17--|
|-------------------------------------------------------------21-17---14-17-14-14--------------|
|----------------------------------------------------------------------------------------------|
|----------------------------------------------------------------------------------------------|
|----------------------------------------------------------------------------------------------|
|
| Gtr II
|                                                                         PM---|
|----------------------------------------------------------------------------------------------|
|----------------------------------------------------------------------------------------------|
|----------------------------------------------------------------------------------------------|
|-------------------4-----------------------------------------------------------------5--------|
|-------------------------------------------------------------------------------5--------------|
|--0h===1s====2----------------2-------------2-----5-----------2----2-----3--------------------|


|----------------------------------------------------------------------------------------------------|
|-14-14----------------------------------------------------------------------------------------------|
|-------21---17-14-17---14-14-21-17---14-17-14-14----------------------------------------------------|
|-------------------------------------------------21-17-14-17-14-14-21---17-14-17---14-14------------|
|-----------------------------------------------------------------------------------------21-17---14-|
|----------------------------------------------------------------------------------------------------|
|
|----------------------------------------------------------------------------------------------------|
|----------------------------------------------------------------------------------------------------|
|----------------------------------------------------------------------------------------------------|
|---------------------4------------------------------------------------------------------------------|
|----------------------------------------------------------------------------3p===2------------------|
|--0h======1s====2------------------2-----------2-----5--------2-------2-------------------5p===2----|


|--------------------------------------------------------------------------------------|
|--------------------------------------------------------------------------------14h21-|
|---------------------------------------------------------------14h21-14h==17h21-------|
|----------------------------------------------14h21-14h17h21--------------------------|
|-17-14-14------------------14h==21-14h17h==21-----------------------------------------|
|----------14h21-14h==17h21------------------------------------------------------------|
|
|                                                                   PM---|
|--------------------------------------------------------------------------------------|
|--------------------------------------------------------------------------------------|
|--------------------------------------------------------------------------------------|
|-------------------4----------------------------------------------------------5-------|
|------------------------------------------------------------------------5-------------|
|--0h====1s====2---------------2----------2-----5--------2----2-----3------------------|


                                     ~~~~
|------------14h21p==14-(14)\---------------------------|
|-14h17h==21--------------------------------------------|
|-------------------------------------------------------|
|-------------------------------------------------------|
|----------------------------------/17------------------|
|-------------------------------------------------------|
|
|-------------------------------------------------------|
|-------------------------------------------------------|
|------------------------------------5p4-----6p5--------|
|------------------4---------------------7p4-----8p5----|
|-------------------------------------------------------|
|--0h===1s====2---------------2--2----------------------|


    N.C.            F#G5F#G5F#G5                  F#G5F#G5F#G5
    Gtrs I, II
    PM------------|               PM------------|
||------------------------------|------------------------------||
||o-----------------------------|-----------------------------o||
||------------------------------|------------------------------||
||------------------------------|------------------------------||
||o-----------------4s5-4s5-4s5-|-----------------4s5-4s5-4s5-o||
||--3-2-0-2-3-5-3-2-2s3-2s3-2s3-|-3-2-0-2-3-5-3-2-2s3-2s3-2s3--||


 Solo 10 (Marty Friedman)
  N.C.
  Gtr I
                                  PM|
|-------------------------------------------|
|-------------------------------------------|
|-------------------------------------------|
|---------4----------------------------5----|
|-----------------------------------5-------|
|-0h=1s=2-------2----2-5----2--2--3---------|
|
| Gtr II
|------------------------10p9---------14p10-|
|-9-12-10-9----10p9-----------12p10p9-------|
|-----------11------11-9--------------------|
|-------------------------------------------|
|-------------------------------------------|
|-------------------------------------------|


|--------------------------------------------------------------------------|
|--------------------------------------------------------------------------|
|--------------------------------------------------------------------------|
|----------------4---------------------------------------------------------|
|---------------------------------------------------3p===2-----------------|
|--0h===1s====2--------2-----2--5--------2----2----------------5p===2------|
|
|-13------10-------------------13s14h18p14h18p==14h18p14h==18p14h18p==14---|
|----14------13h14p10h13s16p14---------------------------------------------|
|--------------------------------------------------------------------------|
|--------------------------------------------------------------------------|
|--------------------------------------------------------------------------|
|--------------------------------------------------------------------------|


                                                         PM-|
|----------------------------------------------------------------------------|
|----------------------------------------------------------------------------|
|----------------------------------------------------------------------------|
|---------------4-------------------------------------------------5----------|
|-----------------------------------------------------------5----------------|
|--0h===1s=2---------------2-------2--5--------2--2------3-------------------|
|
|  ~~~~~
|---------14-----------------14----------------------------------------------|
|-17b19------17p==14------------14---17p14-19p14-----------------17p14-------|
|--------------------16b18-----------------------16b18r(16)---14-------16b18-|
|----------------------------------------------------------------------------|
|----------------------------------------------------------------------------|
|----------------------------------------------------------------------------|


|-------------------------------------------------------------------|
|-------------------------------------------------------------------|
|------------------------------------5p=4-------------6p====5-------|
|----------------4-------------------------7p=4-----------------8p5-|
|-------------------------------------------------------------------|
|--0h=1s===2-----------2----------2---------------------------------|
|
|-14------------14------------------------14------------------------|
|----14h17p==14----14---------------14h17---------------------------|
|---------------------16b18r(16)p14----------17b19==(17)r-(17)\-----|
|-------------------------------------------------------------------|
|-------------------------------------------------------------------|
|-------------------------------------------------------------------|


    N.C.            F#G5F#G5F#G5                  F#G5F#G5F#G5
    Gtrs I, II
    PM------------|               PM------------|
||------------------------------|------------------------------||
||o-----------------------------|-----------------------------o||
||------------------------------|------------------------------||
||------------------------------|------------------------------||
||o-----------------4s5-4s5-4s5-|-----------------4s5-4s5-4s5-o||
||--3-2-0-2-3-5-3-2-2s3-2s3-2s3-|-3-2-0-2-3-5-3-2-2s3-2s3-2s3--||


 Solo 11 (Dave Mustaine)
  N.C.
  Gtr I
|-5-4---2-4-2---------------------8-7-5-7-5-------------------|
|---------------5-5-4---2-2-4---5-------------8-8-7---5-5-7-8-|
|-------------------------------------------------------------|
|-------------------------------------------------------------|
|-------------------------------------------------------------|
|-------------------------------------------------------------|
|
| Gtr II
|                                               PM--|
|-------------------------------------------------------------|
|-------------------------------------------------------------|
|-------------------------------------------------------------|
|-------------4-----------------------------------------5-----|
|---------------------------------------------------5---------|
|-0h==1s==2-----------2-------2---5-----2---2---3-------------|


|-11-10---8-10-8--------------------------14-13-11-13-11------------------------------|
|------------------11-11-10---8-8-10---11------------------14-14-13---11-11-13---14---|
|-------------------------------------------------------------------------------------|
|-------------------------------------------------------------------------------------|
|-------------------------------------------------------------------------------------|
|-------------------------------------------------------------------------------------|
|
|-------------------------------------------------------------------------------------|
|-------------------------------------------------------------------------------------|
|-------------------------------------------------------------------------------------|
|----------------4--------------------------------------------------------------------|
|--------------------------------------------------------------3p===2-----------------|
|--0h===1s===2--------------2--------2-----5--------2----2----------------5p===2------|


|-17-16---14-16-14----------------------------20-19-17-19-17--------------------------|
|--------------------17-17-16---14-14-16---17------------------20-20-19---17-17-19-20-|
|-------------------------------------------------------------------------------------|
|-------------------------------------------------------------------------------------|
|-------------------------------------------------------------------------------------|
|-------------------------------------------------------------------------------------|
|
|                                                                  PM---|
|-------------------------------------------------------------------------------------|
|-------------------------------------------------------------------------------------|
|-------------------------------------------------------------------------------------|
|------------------4----------------------------------------------------------5-------|
|-----------------------------------------------------------------------5-------------|
|--0h===1s====2---------------2----------2-----5--------2----2-----3------------------|


|-23-22---20-22-20-----------------------/6S==7S9S11S==13S14S16S==18S20S22S==23S24b26-(24)---24b26--|
|--------------------23-23-22---20-(20)\------------------------------------------------------------|
|---------------------------------------------------------------------------------------------------|
|---------------------------------------------------------------------------------------------------|
|---------------------------------------------------------------------------------------------------|
|---------------------------------------------------------------------------------------------------|
|
|---------------------------------------------------------------------------------------------------|
|---------------------------------------------------------------------------------------------------|
|-----------------------------------------------5p===4----------------6p===5------------------------|
|------------------4---------------------------------------7p===4----------------8p========5--------|
|---------------------------------------------------------------------------------------------------|
|--0h===1s====2---------------2-------------2-------------------------------------------------------|


|-24b26-------24b26------24b26-----24b26-----|
|--------------------------------------------|
|--------------------------------------------|
|--------------------------------------------|
|--------------------------------------------|
|--------------------------------------------|
|
|                                   PM---|
|--------------------------------------------|
|--------------------------------------------|
|--------------------------------------------|
|-----------4------------------------------5-|
|----------------------------------------5---|
|--0h===1s2---------2--2--5----2-2--3--------|


|-24b26---24b26---24b26---24b26---24b26-24b26---24b26---24b26---|
|---------------------------------------------------------------|
|---------------------------------------------------------------|
|---------------------------------------------------------------|
|---------------------------------------------------------------|
|---------------------------------------------------------------|
|
|---------------------------------------------------------------|
|---------------------------------------------------------------|
|---------------------------------------------------------------|
|---------------4-----------------------------------------------|
|------------------------------------------------3p===2---------|
|--0h===1s=2------------2-------2--5-----2----2----------5p===2-|


   TP                                TP              TP
|-24b26==========================|=(24)------------(24)r-------(24)\-------|
|--------------------------------|-----------------------------------------|
|--------------------------------|-----------------------------------------|
|--------------------------------|-----------------------------------------|
|--------------------------------|-----------------------------------------|
|--------------------------------|-----------------------------------------|
|
|                          PM|
|--------------------------------|-----------------------------------------|
|--------------------------------|-----------------------------------------|
|--------------------------------|-------------------5p==4-------6p==5-----|
|------------4-----------------5-|---------4---------------7p4---------8p5-|
|----------------------------5---|-----------------------------------------|
|--0h====1s2----2--2-5-2-2-3-----|---0h1s2----2--2-------------------------|


 Outro
  G5                         F#G5F#G5F#G5  F#5
  Gtrs I, II
             PM------------|
|----------|-----------------------------|--------------*|
|----------|-----------------------------|--------------*|
|----------|-----------------------------|--------------*|
|----------|-----------------------------|--------------*|
|-5--------|-----------------4s5-4s5-4s5-|-4--(4)\------*|
|-3--------|-3-2-0-2-3-5-3-2-2s3-2s3-2s3-|-2--(2)\------*|



Comments