Megadeth - Hangar Chords & Tabs

 

Hangar Chords & Tabs

Megadeth Chords & Tabs

Version: 1 Type: Tab 3 ratings
1 star 2 stars 3 stars 4 stars 5 stars
comments

Hangar Tab

HANGAR 18 By Megadeth
[Rust In Peace]


Standard Tuning

|-1-1-1-1-1-1-1-1-|-1-1-1-1-1-1-1-1-|-1-1-1-1-1-1-1-1-|-5-5-5-5-5-5-5-5-|
|-3-3-3-3-3-3-3-3-|-3-3-3-3-3-3-3-3-|-3-3-3-3-3-3-3-3-|-4-4-4-4-4-4-4-4-|
|-2-2-2-2-2-2-2-2-|-3-3-3-3-3-3-3-3-|-4-4-4-4-4-4-4-4-|-5-5-5-5-5-5-5-5-|
|-----------------|-----------------|-----------------|-----------------|
|-----------------|-----------------|-----------------|-----------------|
|-----------------|-----------------|-----------------|-----------------|


|-5-5-5-5-5-5-5-5-|-6-6-6-6-6-6-6-6-|-7-7-7-7-7-7-7-7-|-8-8-8-8-8-8-8-8-|
|-6-6-6-6-6-6-6-6-|-6-6-6-6-6-6-6-6-|-6-6-6-6-6-6-6-6-|-8-8-8-8-8-8-8-8-|
|-7-7-7-7-7-7-7-7-|-7-7-7-7-7-7-7-7-|-7-7-7-7-7-7-7-7-|-9-9-9-9-9-9-9-9-|
|-----------------|-----------------|-----------------|-----------------|
|-----------------|-----------------|-----------------|-----------------|
|-----------------|-----------------|-----------------|-----------------|

               15x                                                                  
E-------||--8--||-----------1---5---------------------------------1---6-------------
B---/-8-||--8--||---------3-------6-----------------------------3-------6-----------
G---/-9-||*-9-*||-0-----2----/7-----7-------------------------3----/7-----7---------
D-------||*---*||-x-------------------0-------------------------------------0-------
A-------||-----||-0-----------------------------------------------------------------
E-------||-----||-------------------------------------------------------------------
                                                                                    

                                                                                    
E-----------------------1---7-------------------------5---8-----------1---5---------
B---------------------3-------6---------------------3-------9-------3-------6-------
G-------------------4----/7-----7-----------------5----/------9---2----/7-----7-----
D---------------------------------0---------------------9-------0---------------0---
A-----------------------------------------------------------------------------------
E-----------------------------------------------------------------------------------
                                                                                    

                                                                                    
E-----------------------------1---6-------------------------------1---7-------------
B---------------------------3-------6---------------------------3-------6-----------
G-------------------------3----/7-----7-----------------------4----/7-----7---------
D---------------------------------------0-----------------------------------0-------
A-----------------------------------------------------------------------------------
E-----------------------------------------------------------------------------------
                                                                                    

                              Dave top marty bottom                                 
E---------5---8---------------5-----------------------------------------------------
B-------3-------9-------------6-5-(8)---6-5-----------------------------------------
G-----5----/------9---------------------7-5-7-5-3-2---------------------------------
D-----------9-------0-----------------------8-7-5-3---------------------------------
A-----------------------------------------------------------------------------------
E-----------------------------------------------------------------------------------
                                (Marty)                                             

                                                                                    
E-----------------------------------------------------------------------------------
B-----------------------------------------------------------------------------------
G-----------------------------------------------------------------------------------
D-----------------------------------------------------------------------------------
A-----------------------------------------------------------------------------------
E-----------------------------------------------------------------------------------
                                                                                    

                                                                                    
E-----------------------------------------------------||----------------------------
B-----------------------------------------------------||--3-----/-6~~~~~~-----3-----
G-----------------------------------------------------||*-2-----/-7-----------3-----
D-----------------------------------------------------||*---0-0-----------0-0---0---
A-----------------------------------------------------||----------------------------
E-----------------------------------------------------||----------------------------
                                                                                    

                                                                                    
E------------------------------------------------------------||---------------------
B-----/-6~~~~~~-----3-----/-6~~~~~~-----------5-----/-8------||---------------------
G-----/-7-----------4-----/-7-----------------5-----/-7-----*||---------------------
D---0-----------0-0---0-0-----------0-0---0-0---0-0-----0-0-*||---------------------
A------------------------------------------------------------||---------------------
E------------------------------------------------------------||---------------------
                                                                                    

                                                                                    
E-----------------------------------------------------------------------------------
B-----------------------------------------------------------------------------------
G-----------------------------------------------------------------------------------
D-----------------------------------------------------------------------------------
A-----------------------------------------------------------------------------------
E-----------------------------------------------------------------------------------
                                                                                    

                                                                  Verse 1           
E-----------------------------------------------------------------------------------
B-----------------------------------------------------------------3-----/-6~~~------
G-----------------------------------------------------------------2-----/-7---------
D-------------------------------------------------------------------0-0--------0----
A-----------------------------------------------------------------------------------
E-----------------------------------------------------------------------------------
                                                                                    

                                                                                    
E-----------------------------------------------------------------------------------
B-----3-----/-6~~~-----3-----/-6~~~-------5-----/-8-------3-----/-6~~~-----3--------
G-----3-----/-7--------4-----/-7----------5-----/-7-------2-----/-7--------3--------
D---0---0-0--------0-0---0-0----------0-0---0-0-----0-0-----0-0--------0-0---0-0----
A-----------------------------------------------------------------------------------
E-----------------------------------------------------------------------------------
                                                                                    

                                                                                    
E-----------------------------------------------------------------------------------
B---/-6~~~-----3-----/-6~~~-------5-----/-8-------3-----/-6~~~-----3-----/-6~~~-----
G---/-7--------4-----/-7----------5-----/-7-------2-----/-7--------3-----/-7--------
D----------0-0---0-0----------0-0---0-0-----0-0-----0-0--------0-0---0-0--------0---
A-----------------------------------------------------------------------------------
E-----------------------------------------------------------------------------------
                                                                                    

                                         Chorus                                     
E-----------------------------------------------------------------------------------
B-----3-----/-6~~~-------5-----/-8-------6-\-3~~~-----6-\-3~~~-----6-\-3~~~-----6---
G-----4-----/-7----------5-----/-7-------7-\-2--------7-\-3--------7-\-4--------7---
D---0---0-0----------0-0---0-0-----0-0------------0-0----------0-0----------0-0-----
A-----------------------------------------------------------------------------------
E-----------------------------------------------------------------------------------
                                                                                    

              (Martysolo           release                                          
E-------------------------------------------------------------------------15-17/----
B---5--5~~~---(15)^~~~-15^-15^-15^----------------------------13~~~----13-----------
G---5^-5----0----------------------------------------------14-------14--------------
D-----------------------------------------------------------------------------------
A-----------------------------------------------------------------------------------
E-----------------------------------------------------------------------------------
                                                                                    

                     prebendPrebend and release                                     
E---20---17h20p17-------------------------------------------------------------------
B-----------------20-20^~~~-20^-20p18-18^-------------------------------------------
G-----------------------------------------19~~~\--------10-----10---10-------12-----
D-----------------------------------------------------------------------------------
A-------------------------------------------------8---8----8-8----8----10-10--------
E-----------------------------------------------------------------------------------
                                          release again                             

                                                                                    
E--------------------------------------------------------------17p13----------------
B--------------------------------------------------------------------15-------------
G---------12----12---------10-----10---10-----9-----9-----9/14----------14----14----
D--------------------------------------------------------------------------15-------
A---10-10----10--------8-8----8-8----8----7-7---7-7---7-7---------------------------
E-----------------------------------------------------------------------------------
                                                                                    

                                                                                    
E------13-17p13----13-17p13----13---18p13----------------13-17p13-15-12h13-12-------
B---15----------15----------15------------15----------15----------------------15----
G--------------------------------------------14----14-------------------------------
D-----------------------------------------------15----------------------------------
A-----------------------------------------------------------------------------------
E-----------------------------------------------------------------------------------
                                                                                    

                                                            Pick Slide              
E-------17p13----16p13----16-16^~~~-----20^~~~-20p17-22^~~~-------------------------
B---p13-------15-------15-------------x---------------------------------------------
G-----------------------------------x-----------------------------------------------
D-----------------------------------------------------------\-----------------------
A-----------------------------------------------------------\-----------------------
E-----------------------------------------------------------\-----------------------
                                                                                    

             Undernieth riff                                                        
E---------||------------------------------------------------------------------------
B---------||------------------------------------------------------------------------
G---------||-----2-----2---2-----3-----3---0-----4-----4-----4-----3-----3---3------
D---------||---0-----0---------0-----0---------0-----0-----------0-----0------------
A---------||-0-----0-----0---1-----1-----1---2-----2-----2-2---1-----1-----1---0----
E---------||------------------------------------------------------------------------
                                                                                    

                                                                                    
E-----------------------------------------------------------------------------------
B-----------------------------------------------------------------------------------
G-----2-----2---2-----3-----3---0-----4-----4---4-----5-----5---5-----2-----2---2---
D---0-----0---------0-----0---------0-----0---------0-----0---------0-----0---------
A-------0-----0---1-----1-----1---2-----2-----2---3-----3-----3---0-----0-----0-----
E-----------------------------------------------------------------------------------
                                                                                    

                                                                                    
E-----------------------------------------------------------------------------------
B-----------------------------------------------------------------------------------
G-------3-----3---0-----4-----4---4-----4-----4---4-----3-----3---3-----------------
D-----0-----0---------0-----0---------0-----0---------0-----0-----------------------
A---1-----1-----1---2-----2-----2---2-----2-----2---1-----1-----1-------------------
E-----------------------------------------------------------------------------------
                                                                                    

               marty                             Dave with marty                    
E-----------||-5---------------------------------|----------------------------------
B-----------||---8-6-5-8p6-5-3-6p5p3---5p3-------|---6p5-3---5p3-----3p1------------
G-----------||-----------------------5-----5p3---|---------5-----5-3-----3-2-5p3----
D-----------||-----------------------------------|----------------------------------
A-----------||-----------------------------------|----------------------------------
E-----------||-----------------------------------|----------------------------------
                                                                                    

                                                                                    
E-------|------|--------------------------------------------------------------------
B-------|-7~~~\|-3-----/-6~~~~~~-----3-----/-6~~~~~~-----3-----/-6~~~~~~------------
G---2---|------|-2-----/-7-----------3-----/-7-----------4-----/-7------------------
D-----5-|------|---0-0-----------0-0---0-0-----------0-0---0-0-----------0-0---0----
A-------|------|--------------------------------------------------------------------
E-------|------|--------------------------------------------------------------------
                                                                                    

                                                                                    
E-----------------------------------------------------------------------------------
B-----5-----/-8-----3-----/-6~~~~~~-----3-----/-6~~~~~~-----3-----/-6~~~~~~---------
G-----5-----/-7-----2-----/-7-----------3-----/-7-----------4-----/-7---------------
D---0---0-0-----0-0---0-0-----------0-0---0-0-----------0-0---0-0-----------0-0-----
A-----------------------------------------------------------------------------------
E-----------------------------------------------------------------------------------
                                                                                    

                      verse 2                                                       
E-----------------------------------------------------------------------------------
B-------5-----/-8-----3-----/-6~~~~~~-----3-----/-6~~~~~~-----3-----/-6~~~~~~-------
G-------5-----/-7-----2-----/-7-----------3-----/-7-----------4-----/-7-------------
D---0-0---0-0-----0-0---0-0-----------0-0---0-0-----------0-0---0-0-----------0-0---
A-----------------------------------------------------------------------------------
E-----------------------------------------------------------------------------------
                                                                                    

                                                                                    
E-----------------------------------------------------------------------------------
B---------5-----/-8-----3-----/-6~~~~~~-----3-----/-6~~~~~~-----3-----/-6~~~~~~-----
G---------5-----/-7-----2-----/-7-----------3-----/-7-----------4-----/-7-----------
D-----0-0---0-0-----0-0---0-0-----------0-0---0-0-----------0-0---0-0-----------0---
A-----------------------------------------------------------------------------------
E-----------------------------------------------------------------------------------
                                                                                    

                                                                                    
E-----------------------------------------------------------------------------------
B-----------5-----/-8-----3-----/-6~~~~~~-----3-----/-6~~~~~~-----3-----/-6~~~------
G-----------5-----/-7-----2-----/-7-----------3-----/-7-----------4-----/-7---------
D---0---0-0---0-0-----0-0---0-0-----------0-0---0-0-----------0-0---0-0-------------
A-----------------------------------------------------------------------------------
E-----------------------------------------------------------------------------------
                                                                                    

                                Chorus                                              
E--------------------------------------------------------------------------||-------
B---~~~-----------5-----/-8-----6-\-3~~~-----6-\-3~~~-----6-\-3~~~---------||-------
G-----------------5-----/-7-----7-\-2--------7-\-3--------7-\-4------------||-------
D-------0-0---0-0---0-0-----0-0----------0-0----------0-0----------0-0-----||-------
A--------------------------------------------------------------------------||-------
E--------------------------------------------------------------------------||-------
                                                                                    

    solo               release                   release                            
E-----------------------------------------------------------------------------------
B---13^~~~---15-17-17^-----------------------17^-------------------------1-5---18---
G----------0------------------------------------------------------------------------
D----------0------------------------------------------------------------------------
A-----------------------------------------------------------------------------------
E-----------------------------------------------------------------------------------
                                                                                    

                     prebend       Undernieth                                       
E-------------------------------||--------------------------------------------------
B---^~~~-18p15-18p15------------||--------------------------------------------------
G--------------------17^~~~\----||-----2-----2---2-----3-----3---0-----4-----4------
D-------------------------------||---0-----0---------0-----0---------0-----0--------
A-------------------------------||-0-----0-----0---1-----1-----1---2-----2-----2----
E-------------------------------||--------------------------------------------------
                                                                                    

                                                                                    
E-------------------||--------------------------------------------------------------
B-------------------||--------------------------------------------------------------
G-------3-----3---3-||-----2-----2---2-----3-----3---0-----4-----4---4-----5--------
D-----0-----0-------||---0-----0---------0-----0---------0-----0---------0-----0----
A---1-----1-----1---||-0-----0-----0---1-----1-----1---2-----2-----2---3-----3------
E-------------------||--------------------------------------------------------------
                                                                                    

        with                                                                        
E-----------|-----------------------------------------------------------------------
B-----------|-----------------------------------------------------------------------
G---5-------|-----------10-----10---10-------12-------12----12---------10-----10----
D-----------|-----------------------------------------------------------------------
A-----3-----|-----8---8----8-8----8----10-10----10-10----10--------8-8----8-8-------
E-----------|-----------------------------------------------------------------------
                                                                                    

                                                                                    
E-----------------------------||------------13-12-------17-----18~~~----------------
B-----------------------------||-15^~~~---x-------15---------x----------15-17-18----
G-----10-----9-----9-----9/14-||--------0------------14----x---------17-------------
D-----------------------------||----------------------------------------------------
A---8----7-7---7-7---7-7------||----------------------------------------------------
E-----------------------------||----------------------------------------------------
                                                                                    

                                            release                                 
E---15-17/19-16----------------------17-20^-----------------------------------------
B---------------18----------------18------------------------------------------------
G------------------10-16----16-19---------------------------------------------------
D------------------------18---------------------------------------------------------
A-----------------------------------------------------------------------------------
E-----------------------------------------------------------------------------------
                                                                                    

    prebend release prebend                           undernieth                    
E---20^-------------------------------------20^-------|-----------------------------
B-----------------------------------------------------|-----------------------------
G-----------------------------------------------------|-------2-----2---2-----3-----
D-----------------------------------------------------|-----0-----0---------0-------
A-----------------------------------------------------|---0-----0-----0---1-----1---
E-----------------------------------------------------|-----------------------------
                                                                                    

                                                                                    
E-----------------------------------------------||----------------------------------
B-----------------------------------------------||----------------------------------
G-----3---0-----4-----4---4-----3-----3---3-----||-----2-----2---2-----3-----3------
D---0---------0-----0---------0-----0-----------||---0-----0---------0-----0--------
A-------1---2-----2-----2---1-----1-----1-------||-0-----0-----0---1-----1-----1----
E-----------------------------------------------||----------------------------------
                                                                                    

                                    with                                            
E---------------------------------------|-------------------------------------------
B---------------------------------------|-------------------------------------------
G---0-----4-----4---4-----5-----5-------|-----------10-----10---10-------12---------
D-------0-----0---------0-----0---------|-------------------------------------------
A-----2-----2-----2---3-----3-----3-----|-----8---8----8-8----8----10-10----10-10---
E---------------------------------------|-------------------------------------------
                                                                                    

                                                                                    
E--------------------------------------------------------||---------------------9---
B--------------------------------------------------------||----------------9-12-----
G---12----12---------10-----10---10-----9-----9-----9/14-||-------------10----------
D--------------------------------------------------------||--------9-11-------------
A------10--------8-8----8-8----8----7-7---7-7---7-7------||---8-11------------------
E--------------------------------------------------------||-9-----------------------
                                                                                    

                                                                release             
E-----13p9----10----------8-----------------------------------------------14/17p----
B----------11-----------------------12/15-12-------------10------------10-----------
G--------------------------------------------10-------------11^-8\7~~~--------------
D----------------12~~~\10---10~~~-9-------------12\10/12----------------------------
A-----------------------------------------------------------------------------------
E-----------------------------------------------------------------------------------
                                                                                    

                                                                                    
E---14------------10/15p11---------------------------11-15-14----11-10--------------
B------16-------7----------13---------------------13----------13-------10-13-12-----
G---------17~~~\--------------14~~~------------12-----------------------------------
D----------------------------------------12h13--------------------------------------
A-----------------------------------9/12--------------------------------------------
E-----------------------------------------------------------------------------------
                                                                                    

                                                                                    
E--------/17-14-14-14-15-------14---------------------------------------------------
B---~~~\3----------------16-16----15-15-15-16-13-12-15-11-11-11-13-10-10-11-10h11---
G-----------------------------------------------------------------------------------
D-----------------------------------------------------------------------------------
A-----------------------------------------------------------------------------------
E-----------------------------------------------------------------------------------
                                                                                    

                 prebend release                     prebend     release            
E-----------------------------------------------------------------------------------
B---p10----10-----------------------------------------------------------------------
G-------12----12-12^---------------------------------12^~~~-------------------------
D-----------------------------------------------------------------------------------
A-----------------------------------------------------------------------------------
E-----------------------------------------------------------------------------------
                                                                                    

                                                                                    
E-----------------------------------------------------------------------------------
B-----------------------------------------------------------------------------------
G---------11h12h14p12p11----11h12p11~~~/14h15h17p15p14----14h15p14~~~/17-17h19h20---
D------------------------13----------------------------17---------------------------
A-----------------------------------------------------------------------------------
E-----------------------------------------------------------------------------------
                                                                                    

                                                with                                
E-----------------------------------------------|-----------------------------------
B-------------------------------19-20-22-22^~~~-|-----------------------------------
G---p19p17----19p17----17-19-20-----------------|-----6-----6-----6-7---------------
D----------20-------20--------------------------|-----------------------------------
A-----------------------------------------------|-4-4---4-4---4-4-----5-5-5-5-8-5---
E-----------------------------------------------|-----------------------------------
                                                                                    
[ Tab from: http://www.guitartabs.cc/tabs/m/megadeth/hangar_tab.html ]
                                                                                    
E-----------------------------------------------------------------------------------
B-----------------------------------------------------------------------------------
G-----------7---------------------7---------------------7---------------------------
D-----7-8-------------------7-8-------------------7-8-------------------6p5-8-5-----
A---5-5-6-5---5-5-5-5-8-5-5-5-6-5---5-5-5-5-8-5-5-5-6-5---5-5-5-5-8-5-5---------4---
E-----------------------------------------------------------------------------------
                                                                                    

                                                                                    
E-----------------------------------------------------------------------------------
B-----------------------------------------------------------------------------------
G-----6-----6-----6-7---------------------7---------------------7-------------------
D-----------------------------------7-8-------------------7-8-------------------7---
A---4---4-4---4-4-----5-5-5-5-8-5-5-5-6-5---5-5-5-5-8-5-5-5-6-5---5-5-5-5-8-5-5-5---
E-----------------------------------------------------------------------------------
                                                                                    

                                     alone                                          
E---------------------------------||------------------------------------------------
B---------------------------------||------------------------------------------------
G-------7-------------------------||------------------------------------------------
D---8-------------6p5---5-6p5-----||-------4-----------------5-------4--------------
A---6-5---5-5-5-5-----8-5-----7/8\||---------------0-------5---------------0--------
E---------------------------------||-0h1-2---2p0-2---2-2-3-----0h1-2---2-2---2-0----
                                                                                    

                                                                    not alone       
E-----------------------------------------------------------------|-----------------
B-----------------------------------------------------------------|----------10-----
G-------------------------------------------------5p4-----6p5-----|----11-12--------
D-----------------4-----------------5-------4---------7-------8-5-|/12--------------
A---3p2p0-----------------0-------5--------------------/8---------|-----------------
E---------0-0h1-2---2p0-2---2-2-3-----0h1-2---2-0-----------------|-----------------
                                                                                    

                                                                                    
E---------10----10-------10-14-15p14-10---------------------------------------------
B---13-10----14----10-13----------------13p10-13/22\14-10-13p10\8\7---8-7h8p7\4\3---
G-----------------------------------------------------------------------------------
D-----------------------------------------------------------------------------------
A-----------------------------------------------------------------------------------
E-----------------------------------------------------------------------------------
                                                                                    

      release                                                                       
E---^------------------------------------------------/15p11-------------------------
B---------------------------------7-10-9-10-7h8p7-----------13-------------13-16----
G-------------------------5/8-7h8-----------------8-7----------14-11/13h14----------
D-----------------------------------------------------------------------------------
A-----------------------------------------------------------------------------------
E-----------------------------------------------------------------------------------
                                                                                    

                                        release                                     
E-----------------------17----------------------------------------------------------
B-----------13-16-15h16----16p15--------------------------------------10/13-13-13---
G---13-14------------------------17-16^-------------------------14\13---------------
D-----------------------------------------------------------------------------------
A-----------------------------------------------------------------------------------
E-----------------------------------------------------------------------------------
                                                                                    

                                                                                    
E-----------------------------------------------------------------------------------
B---13\12---12-12-12/20-20-20-20\19-19-19-19\13-13-13-13h15p13----13-15-12h13-12----
G--------------------------------------------------------------14-------------------
D-----------------------------------------------------------------------------------
A-----------------------------------------------------------------------------------
E-----------------------------------------------------------------------------------
                                                                                    

                                                                                    
E-----------------------------------------------10-12p10-8-10p8----------8h12-------
B---10h12p10----10/12-------------------10-12-------------------12-10h12------------
G------------12-------14-12h14h12-11-12-------0-------------------------------12----
D-----------------------------------------------------------------------------------
A-----------------------------------------------------------------------------------
E-----------------------------------------------------------------------------------
                                                                                    

                                       release                                      
E-----------10----10--------------------------------------------------|-------------
B--------------10----10p7---9p7---7-----------------------------------|-------------
G---p10p8\7---------------9-----9---9^-------------------------7~~~\2-|-------------
D---------------------------------------------------------------------|-------------
A---------------------------------------------------------------------|-------------
E---------------------------------------------------------------------|-------------
                                                                                    

    undernieth riff                                                                 
E-----------------------------------------------------------------------------------
B-----------------------------------------------------------------------------------
G---7---------------------7---------------------7---------------------7-------------
D-------------------7-8-------------------7-8-------------------7-8-----------------
A-----5-5-5-5-8-5-5-5-6-5---5-5-5-5-8-5-5-5-6-5---5-5-5-5-8-5-5-5-6-5---5-5-5-5-8---
E-----------------------------------------------------------------------------------
                                                                                    

                                                                                    
E-----------------------------------------------------------------------------------
B-----------------------------------------------------------------------------------
G---------------7---------------------7---------------------7-----------------------
D-------6p5-8-5-----------------7-8-------------------7-8-------------------7-8-----
A---5-5-----------5-5-5-5-8-5-5-5-6-5---5-5-5-5-8-5-5-5-6-5---5-5-5-5-8-5-5-5-6-5---
E-----------------------------------------------------------------------------------
                                                                                    

                                 alone                                              
E-----------------------------||----------------------------------------------------
B-----------------------------||----------------------------------------------------
G---7-------------------------||----------------------------------------------------
D-------------6p5---5-6p5-----||-------4-----------------5-------4------------------
A-----5-5-5-5-----8-5-----8-5-||---------------0-------5---------------0-----3p2----
E---------------------------0-||-0h1-2---2p0-2---2-2-3-----0h1-2---2-2---2-0--------
                                                                                    

                                                                                    
E-----------------------------------------------------------------------------------
B-----------------------------------------------------------------------------------
G----------------------------------------------5p4-----6p5--------------------------
D--------------4-----------------5-------4---------7-------8------------------------
A---p0-----------------0-------5--------------------/8------------------------------
E------0-0h1-2---2p0-2---2-2-3-----0h1-2---2-0---------------0-3-2-0-2-2-3-5-3-2----
                                                                                    

                                                                                    
E-----------------------------------------------------------------------------------
B-----------------------------------------------------------------------------------
G-----------------------------------------------------------------------------------
D-----------------------------------------------------------------------------------
A---4-/-5-4-/-5-4-/-5---------------------4-/-5-4-/-5-4-/-5---------------------4---
E---2-/-3-2-/-3-2-/-3-0-3-2-0-2-2-3-5-3-2-2-/-3-2-/-3-2-/-3-0-3-2-0-2-2-3-5-3-2-2---
                                                                                    

                                                             solo                   
E---------------------------------------------------------||-17-17-17-17-16-14-17---
B---------------------------------------------------------||------------------------
G---------------------------------------------------------||------------------------
D---------------------------------------------------------||------------------------
A---/-5-4-/-5-4-/-5---------------------4-/-5-4-/-5-4-/-5-||------------------------
E---/-3-2-/-3-2-/-3-0-3-2-0-2-2-3-5-3-2-2-/-3-2-/-3-2-/-3-||------------------------
                                                                                    

                                                                                    
E---17-17-17-16-14-17-17-17-17-16-14-17-17-17-17-16-14-17-17-17-17-16-14------------
B---------------------------------------------------------------------14-17-17-17---
G-----------------------------------------------------------------------------------
D-----------------------------------------------------------------------------------
A-----------------------------------------------------------------------------------
E-----------------------------------------------------------------------------------
                                                                                    

                                                                                    
E-----------------------------------------------------------------------------------
B---17-16-14-14----------14----17----------------------------------16----14----16---
G---------------16-16-16----15----14-------14----14----14-14-14-14-16----14-14-16---
D------------------------------------16-16-14-14----14----16-16-16-16-16-16-16-16---
A-----------------------------------------------------------------------------------
E-----------------------------------------------------------------------------------
                                                                                    

                                                                                    
E---------------------------------------------------------------14-17p14-14h17-17---
B---16-16--------------16----14-16-14-17-19p17p14-14-14h17-0-17---------------------
G---16-16----14-14h16^----16--------------------------------------------------------
D---16-16-16------------------------------------------------------------------------
A-----------------------------------------------------------------------------------
E-----------------------------------------------------------------------------------
                                                                                    

                        release                            with                     
E---19p1-7p14-14-14-19^--------------------p17----19^~~~-|--------------------------
B----------------------------------------------19--------|--------------------------
G--------------------------------------------------------|--------------------------
D--------------------------------------------------------|-------4------------------
A--------------------------------------------------------|-------------0-------5----
E--------------------------------------------------------|-0h1-2---2-2---2-2-3------
                                                                                    

                                                                                    
E-----------------------------------------------------------------------------------
B-----------------------------------------------------------------------------------
G-------------------------------------------------------------------5-4-----6p5-----
D---5-------4-------------------------4---------------5-------4---------7-------8---
A-----------------0-----3p2p0---------------0-------5------------/7------/8---------
E-----0h1-2---2-2---2-0-------0-0h1-2---2-2---2-2-3-----0h1-2---2-------------------
                                                                                    

     alone                                                                          
E-----------------------------------------------------------------------------------
B-----------------------------------------------------------------------------------
G-----------------------------------------------------------------------------------
D---\-------------------------------------------------------------------------------
A------------------------4-/-5-4-/-5-4-/-5---------------------4-/-5-4-/-5-4-/-5----
E----0-3-2-0-2-2-3-5-3-2-2-/-3-2-/-3-2-/-3-0-3-2-0-2-2-3-5-3-2-2-/-3-2-/-3-2-/-3----
                                                                                    

                                                                                    
E-----------------------------------------------------------------------------------
B-----------------------------------------------------------------------------------
G-----------------------------------------------------------------------------------
D-----------------------------------------------------------------------------------
A-----------------------4-/-5-4-/-5-4-/-5---------------------4-/-5-4-/-5-4-/-5-----
E---0-3-2-0-2-2-3-5-3-2-2-/-3-2-/-3-2-/-3-0-3-2-0-2-2-3-5-3-2-2-/-3-2-/-3-2-/-3-----
                                                                                    

       solo    release                                  release                     
E---||----------------------------------------------21^-----------------------21----
B---||-----19^----------------------------------------------------------------------
G---||---x---------------------------18-21~~~-21-18---------------------------------
D---||-x----------------------------------------------------------------------------
A---||------------------------------------------------------------------------------
E---||------------------------------------------------------------------------------
                                                                                    

           prebend                                                 bar bend low     
E---p20----20^~~~-------------------------------------------------------------------
B-------20--------------------18-20p16----------------------------------------------
G-----------------18-------------------17p14----14-1-7-14h17p14h17p14---------------
D--------------------19-18-16----------------17-------------------------------------
A-----------------------------------------------------------------------------------
E-----------------------------------------------------------------------------------
                                                                                    

                                                                            Harm.   
E-----------------------------------------------------------------------------------
B------------------------14-17p14----17p14-------------17p14----17p14-------(17)----
G---------------------17----------17-------17-14-17h18-------17-------17-14---------
D-----------------------------------------------------------------------------------
A-----------------------------------------------------------------------------------
E-----------------------------------------------------------------------------------
                                                                                    

          with                                                                      
E-------|-|-------------------------------------------------------------------------
B---^\--|-|-------------------------------------------------------------------------
G-----0-|-|-------------------------------------------------------------------------
D-------|-|-------4---------------5-------4-------------------------4---------------
A-------|-|-------------0-------5---------------0-----3p2p0---------------0---------
E-------|-|-0h1-2---2-2---2-2-3-----0h1-2---2-2---2-0-------0-0h1-2---2-2---2-2-3---
                                                                                    

                                  alone                                             
E-----------------------------------------------------------------------------------
B-----------------------------------------------------------------------------------
G-------------------5-4-----6p5-----------------------------------------------------
D-----5-------4---------7-------8\--------------------------------------------------
A---5------------/7------/8---------------------------4-/-5-4-/-5-4-/-5-------------
E-------0h1-2---2-----------------0-3-2-0-2-2-3-5-3-2-2-/-3-2-/-3-2-/-3-0-3-2-0-2---
                                                                                    

                                                                                    
E-----------------------------------------------------------------------------------
B-----------------------------------------------------------------------------------
G-----------------------------------------------------------------------------------
D-----------------------------------------------------------------------------------
A-------------4-/-5-4-/-5-4-/-5---------------------4-/-5-4-/-5-4-/-5---------------
E---2-3-5-3-2-2-/-3-2-/-3-2-/-3-0-3-2-0-2-2-3-5-3-2-2-/-3-2-/-3-2-/-3-0-3-2-0-2-2---
                                                                                    

                                 solo                                               
E-----------------------------||------------------------10p9---------14p10-13-------
B-----------------------------||-9-12p10-9----10p9-----------12p10p9----------14----
G-----------------------------||-----------11------11-9-----------------------------
D-----------------------------||----------------------------------------------------
A-----------4-/-5-4-/-5-4-/-5-||----------------------------------------------------
E---3-5-3-2-2-/-3-2-/-3-2-/-3-||----------------------------------------------------
                                                                                    

                                                                                    
E---10----------------11----13/14h18p14h18p14h18p14h18p14-----14-----------14-------
B------13/14p10-10/14----14-------------------------------17^----17p14--------14----
G----------------------------------------------------------------------16^----------
D-----------------------------------------------------------------------------------
A-----------------------------------------------------------------------------------
E-----------------------------------------------------------------------------------
                                                                                    

                    release                                                         
E------------------------------------------------------14----------14---------------
B---17p14-19p14------------------------------17p14--------14h17p14----14------------
G---------------16^----------------------p14-------16^-------------------16^--------
D-----------------------------------------------------------------------------------
A-----------------------------------------------------------------------------------
E-----------------------------------------------------------------------------------
                                                                                    

    release                                                                         
E------------------------------------14---------|-----------------------------------
B---------------------------14-14h17------------|-----------------------------------
G---------------------------14----------17~~~\7\|-----------------------------------
D-----------------------------------------------|-------4---------------5-------4---
A-----------------------------------------------|-------------0-------5-------------
E-----------------------------------------------|-0h1-2---2-2---2-2-3-----0h1-2-----
                                                                                    

                                                                        alone       
E-----------------------------------------------------------------------------------
B-----------------------------------------------------------------------------------
G---------------------------------------------------------5-4-----6p5---------------
D---------------------------4---------------5-------4---------7-------8\------------
A-------0-----3p2p0---------------0-------5------------/7------/8-------------------
E---2-2---2-0-------0-0h1-2---2-2---2-2-3-----0h1-2---2-----------------0-3-2-0-2---
                                                                                    

                                                                                    
E-----------------------------------------------------------------------------------
B-----------------------------------------------------------------------------------
G-----------------------------------------------------------------------------------
D-----------------------------------------------------------------------------------
A-------------4-/-5-4-/-5-4-/-5---------------------4-/-5-4-/-5-4-/-5---------------
E---2-3-5-3-2-2-/-3-2-/-3-2-/-3-0-3-2-0-2-2-3-5-3-2-2-/-3-2-/-3-2-/-3-0-3-2-0-2-2---
                                                                                    

                                                                       solo         
E-------------------------------------------------------------------||-5-4-2-4-2----
B-------------------------------------------------------------------||--------------
G-------------------------------------------------------------------||--------------
D-------------------------------------------------------------------||--------------
A-----------4-/-5-4-/-5-4-/-5---------------------4-/-5-4-/-5-4-/-5-||--------------
E---3-5-3-2-2-/-3-2-/-3-2-/-3-0-3-2-0-2-2-3-5-3-2-2-/-3-2-/-3-2-/-3-||--------------
                                                                                    

                                                                                    
E---2-------2---8-5-8-7-5-7-5---------8-11-10-8-10-8---------------------11-14-13---
B-----5-4-2---5--------------------------------------11-11p10p8-10-11p10------------
G-----------------------------8-7-5-7-----------------------------------------------
D-----------------------------------------------------------------------------------
A-----------------------------------------------------------------------------------
E-----------------------------------------------------------------------------------
                                                                                    

                                                                                    
E---p11h13p11-------------12/14-14-17p16p14h16p14-------------------0-17-20-20p19---
B-------------14-13p11-14-------------------------17-17p16p14-14h17-----------------
G-----------------------------------------------------------------------------------
D-----------------------------------------------------------------------------------
A-----------------------------------------------------------------------------------
E-----------------------------------------------------------------------------------
                                                                                    

                                                               trem.pick            
E---p17h19p17----------------------19-20-23p20-21p20-18-18\6/9/24^-24^-24^-24^-24---
B-------------20-19-19p17-17h20-----------------------------------------------------
G-------------------------------19--------------------------------------------------
D-----------------------------------------------------------------------------------
A-----------------------------------------------------------------------------------
E-----------------------------------------------------------------------------------
                                                                                    

                                      trem.pick hold bend                           
E---^-24^-24^-24^-24^-24^-24^-24^-24^-----------------------------------------------
B-----------------------------------------------------------------------------------
G-----------------------------------------------------------------------------------
D-----------------------------------------------------------------------------------
A-----------------------------------------------------------------------------------
E-----------------------------------------------------------------------------------
                                                                                    

                           trem.pick                         with                   
E---------------------(24)---------------------------------|------------------------
B----------------------------------------------------------|------------------------
G----------------------------------------------------------|------------------------
D----------------------------------------------------------|-------4----------------
A--------------------------------------------------------5-|-------------0----------
E--------------------------------------------------------3-|-0h1-2---2-2---2-2-3----
                                                                                    

                                                                                    
E-----------------------------------------------------------------------------------
B-----------------------------------------------------------------------------------
G---------------------------------------------------------------------5-4-----6p5---
D-----5-------4-------------------------4---------------5-------4---------7---------
A---5---------------0-----3p2p0---------------0-------5------------/7------/8-------
E-------0h1-2---2-2---2-0-------0-0h1-2---2-2---2-2-3-----0h1-2---2-----------------
                                                                                    

                                                                                    
E-----------------------------------------------------------------------------------
B-----------------------------------------------------------------------------------
G-----------------------------------------------------------------------------------
D---8\------4---------------5-------4-------------------------4---------------5-----
A-----------------0-------5---------------0-----3p2p0---------------0-------5-------
E-----0h1-2---2-2---2-2-3-----0h1-2---2-2---2-0-------0-0h1-2---2-2---2-2-3-----0---
                                                                                    

                                                       both guitars-outro           
E------------------------------------------------------||---------------------------
B------------------------------------------------------||---------------------------
G------------------------------------------------------||---------------------------
D--------4-----------5p4-----------4-----------5p4-----||---------------------------
A--------------0---2-----0-2-------------0---2-----0-2-||-------------------4-/-5---
E---h1-2---2-2---2-----------0h1-2---2-2---2-----------||---3-2-0-2-3-5-3-2-2-/-3---
                                                                                    

                                                                                    
E-----------------------------------------------------------------------------------
B-----------------------------------------------------------------------------------
G-----------------------------------------------------------------------------------
D-----------------------------------------------------------------------------------
A---4-/-5-4-/-5-4-------------------------------------------------------------------
E---2-/-3-2-/-3-2\0-----------------------------------------------------------------
Comments