Megadeth - Good Mourning Black Friday Chords & Tabs

 

Good Mourning Black Friday Chords & Tabs

Megadeth Chords & Tabs

Version: 3 Type: Tab 0 ratings
1 star 2 stars 3 stars 4 stars 5 stars
comments

Good Mourning Black Friday Tab

   
Band- Megadeth
Song- Good Mourning Black Friday

Tuning: 1/4 step down


Riff 1 (acoustic)
e|-----------0----------------0---------|
B|-----9---------9------9---------------|
G|---8---8-8---8------8---8-8---8-------|
D|-6----------------9-------------------|
A|--------------------------------11-10-|
E|--------------------------------------|

e|-----------0---------------3-----------6-9-------11-|
B|-----9-----------------------4-------5-------8-11---|
G|---8---8-8---8---------3-------6-4-6-------9--------|
D|---------------------5---5--------------------------|
A|-7-------------7h9-4--------------------------------|
E|----------------------------------------------------|


Riff 2 (acoustic)
e|---------0-------------0-------------0-------|
B|-----9-------9-------9---9-------9-------9---|
G|---8---8---8-------8-------8---8---8---8-----|
D|-6-------------6-8-----------9-------------9-|
A|---------------------------------------------|
E|---------------------------------------------|

e|---------------------------|
B|------9-----9-----9-----8--|
G|----8-----8-----8-----8----|
D|-11-----9-----8-----6------|
A|---------------------------|
E|---------------------------|


Solo over Riff 2 (Distortion, Poland)
e|---------------------------------------|
B|-12h14~---12~--11~--9~--5\4~~---(4)d3*-|
G|---------------------------------------|
D|---------------------------------------|
A|---------------------------------------|
E|---------------------------------------|

e|-----14-19~--18~--16~------------------|
B|---17-------------------19b21~~----19~-|
G|-18------------------------------------|
D|---------------------------------------|
A|---------------------------------------|
E|---------------------------------------|

e|-----------------------------------------------------|
B|-12h14~---12~--11~--9~--5\4~~-(4)d2r4*---------------|
G|---------------------------------------6-4-3~-(3)d2*-|
D|-----------------------------------------------------|
A|-----------------------------------------------------|
E|-----------------------------------------------------|

e|---------------|
B|---------------|
G|----18~~~------|
D|-----a---------|
A|---------------|
E|---------------|

End solo



Riff 3 (acoustic)
e|---------11-9---------------------9---|
B|-------9------12-9--------9-12-11---8-|
G|---8------------------8---------------|
D|-9---9--------------8---8-------------|
A|--------------------------------------|
E|--------------------------------------|


Solo over Riff 3 (Distortion, Poland)
e|-------------------------------------|
B|-------------------------------------|
G|-------18b20--16-20b21--15--(15)b16~-|
D|-19b21-------------------------------|
A|-------------------------------------|
E|-------------------------------------|

e|---------------------------------------------|
B|-17b19~--17-16-------------------------------|
G|---------------18-16-15~~--------------------|
D|---------------------------17-16-------------|
A|---------------------------------18-14~~d12*-|
E|---------------------------------------------|

End solo


Riff 4
Guitar 1 (acoustic)
e|-----0----------------------------------------------------|
B|----------10-8h10p8----/12--------12----------------------|
G|-9-9---11-----------11------11-11----14-12-11h12p11-------|
D|----------------------------------------------------14-12-|
A|----------------------------------------------------------|
E|----------------------------------------------------------|

e|-----------------------------------------------------|
B|-----------------------------------------------------|
G|-12----11-12-14-12-11----11-------11-12-14-12h14p12\-|
D|----14----------------14----13-14--------------------|
A|-----------------------------------------------------|
E|-----------------------------------------------------|

e|-----0----------------------------------------------------|
B|----------10-8h10p8----/12--------12----------------------|
G|-9-9---11-----------11------11-11----14-12-11h12p11-------|
D|----------------------------------------------------14-12-|
A|----------------------------------------------------------|
E|----------------------------------------------------------|

e|----------------------------------------------------------|
B|-------------------------------------------------16-16/17-|
G|-12----11-12-14-12-11----11-------11-12-14-14/16----------|
D|----14----------------14----13-14-------------------------|
A|----------------------------------------------------------|
E|----------------------------------------------------------|


Guitar 2 (distortion, comes in at very end)
e|----------------------------------|
B|----------------------------------|
G|----------------------------------|
D|----------------------------------|
A|--2-----2--[rings into next riff]-|
E|--0-----0-------------------------|


Solo over Riff 4 (Distortion, Poland)
e|----------------------12b14r12-----------|
B|-------------------------------10~---/15-|
G|-10b12r10--8b9--6b7r6--------------------|
D|-----------------------------------------|
A|-----------------------------------------|
E|-----------------------------------------|

e|---------------------------------------|
B|---15b17--15p14------------------------|
G|-16------------16b17---16p14~--12--11~-|
D|---------------------------------------|
A|---------------------------------------|
E|---------------------------------------|

e|----------------------------------|
B|--------------10-10/12--16-16/17~-|
G|-11-8-9-11-12---------------------|
D|----------------------------------|
A|----------------------------------|
E|----------------------------------|

End solo


Riff 5
Guitar 1 (Acoustic)
e|-------------------------------------------------|
B|-----5-5---5-----5-5---5-----5-5---5-----5-5---5-|
G|---4-----4-----4-----4-----4-----4-----4-----4---|
D|-2-----------2-----------4-----------4-----------|
A|-------------------------------------------------|
E|-------------------------------------------------|

e|-------------------------------------------------|
B|-----5-5---5-----5-5---5----5---5----------------|
G|---4-----4-----4-----4----2---0------------------|
D|-5-----------5--------------------4~--5~--4~-----|
A|----------------------------------------------5~-|
E|-------------------------------------------------|

e|-------------------------------------------------|
B|-----5-5---5-----5-5---5-----5-5---5-----5-5---5-|
G|---4-----4-----4-----4-----4-----4-----4-----4---|
D|-2-----------2-----------0-----------0-----------|
A|-------------------------------------------------|
E|-------------------------------------------------|
                                        Final time
e|--------------------------------------|------|
B|-----5-5---5-----5-5---5--------------|------|
G|---4-----4-----4-----4----------------|------|
D|--------------------------5--7--9--11-|--9\--|
A|-3-----------2------------3--5--7---9-|--7\--|
E|--------------------------------------|------|


Guitar 2 (Distortion, slight palm muting)
e|-------------------------------------------------|
B|-----5-5---5-----5-5---5-----5-5---5-----5-5---5-|
G|---4-----4-----4-----4-----4-----4-----4-----4---|
D|-2-----------2-----------4-----------4-----------|
A|-------------------------------------------------|
E|-------------------------------------------------|

e|-------------------------------------------------|
B|-----5-5---5-----5-5---5----5---5----------------|
G|---4-----4-----4-----4----2---0------------------|
D|-5-----------5--------------------4~--5~--4~-----|
A|--------------------------------------a---a---5~-|
E|----------------------------------------------a--|

e|-------------------------------------------------|
B|-----5-5---5-----5-5---5-----5-5---5-----5-5---5-|
G|---4-----4-----4-----4-----4-----4-----4-----4---|
D|-2-----------2-----------0-----------0-----------|
A|-------------------------------------------------|
E|-------------------------------------------------|
                                    Final time
e|----------------------------------|------|
B|----------------------------------|------|
G|----------------------------------|------|
D|-2p0-----2p0-----2p0--5--7--9--11-|--9\--|
A|-----3~------2~-------3--5--7---9-|--7\--|
E|----------------------------------|------|


Solo over Riff 5 (Distortion, Mustaine)
e|-19~----19~-----------15-17-19~--19~-19~-19~-|
B|--------------15-17-19-----------------------|
G|---------------------------------------------|
D|---------------------------------------------|
A|---------------------------------------------|
E|---------------------------------------------|

e|---------14-15-17-15-14-15-14-12-------------------|
B|-14-15-17------------------------17-15-14-15-15-17-|
G|---------------------------------------------------|
D|---------------------------------------------------|
A|---------------------------------------------------|
E|---------------------------------------------------|

e|-------------------------------------------------|
B|-17-15-14-15-14-12-------------------------------|
G|-------------------16-14-12-14-12-16-14-12-14-12-|
D|-------------------------------------------------|
A|-------------------------------------------------|
E|-------------------------------------------------|

e|-------------------------------------------------------|
B|-------------------------------------------------------|
G|-------------------------------------------------------|
D|-16-14-12-14-12-14-16-14-12-14-12----------------------|
A|----------------------------------16-14-12-14-16-14-12-|
E|-------------------------------------------------------|

e|--------|
B|--------|
G|--------|
D|--------|
A|--------|
E|--12~~--|

e|-----------------------------------------------|
B|-----------------------------------------------|
G|-----------------------------------------------|
D|-----------------------------------------------|
A|-----------------------------------------------|
E|-----------------------------------------------|

e|-----------------------------------------------|
B|-----------------------------------------------|
G|-----------------------------------------------|
D|-----------------------------------------------|
A|-----------------------------------------------|
E|-----------------------------------------------|

e|-----------------------------------------------|
B|-----------------------------------------------|
G|-----------------------------------------------|
D|-----------------------------------------------|
A|-----------------------------------------------|
E|-----------------------------------------------|

e|---------15h17h19---------17h19h20-|
B|-15h17h19---------17h19h20---------|
G|-----------------------------------|
D|-----------------------------------|
A|-----------------------------------|
E|-----------------------------------|

e|---------19h20h22-14h15h17---------|
B|-19h20h22-----------------15h17h19-|
G|-----------------------------------|
D|-----------------------------------|
A|-----------------------------------|
E|-----------------------------------|

e|-15-17--14-15-----14----------------------|
B|---------------17-----15-17--14-15--------|
G|------------------------------------14-16-|
D|------------------------------------------|
A|------------------------------------------|
E|------------------------------------------|

e|-15-17--14-15-----14------------17b18~~-|
B|---------------17-----15-17--14---------|
G|----------------------------------------|
D|----------------------------------------|
A|----------------------------------------|
E|----------------------------------------|

e|-15-17--14-15-----14---------------------|
B|---------------17-----15-17--14-15----15-|
G|-----------------------------------14----|
D|-----------------------------------------|
A|-----------------------------------------|
E|-----------------------------------------|

e|---------------------------------------|
B|---15---15---15---15---15--------------|
G|-14---12---11---12---11----------------|
D|--------------------------12\2~~-------|
A|-----------------------------------5~~-|
E|---------------------------------------|

e|----------------------------------------|
B|----------------------------------------|
G|----------------------------------------|
D|-2p0-----2p0-----2p0-----------------9\-|
A|-----3~------2~----------------------7\-|
E|----------------------8\-10\-12\-14\----|

End solo



Riff 6
Guitar 1 (Distortion, slight palm muting)
e|--------------------------------------------------|
B|-----5-5---5-----5-5---5-----5-5---5----5---5-----|
G|---4-----4-----4-----4-----4-----4----2---0-------|
D|-2-----------4-----------5--------------------4-5-|
A|--------------------------------------------------|
E|--------------------------------------------------|
    "Hey, I don't feel so good..."

Guitar 2 (comes in after awhile)
e|----------------|
B|----------------|
G|----------------|
D|-2--------------|
A|-2--[let ring]--|
E|----------------|
   "Hey..."



Riff 7
Guitar 1                   x2
e|--------------------------|
B|--------------------------|
G|--------------------------|
D|-2----4----5----7--5--4-5-|
A|-2----4----5----7--5--4-5-|
E|--------------------------|
  "Something's coming over me..."

Guitar 2
e|--------------------------|
B|--------------------------|
G|--------------------------|
D|-2----4----5----7--5--4-5-|
A|-2----4----5----7--5--4-5-|
E|--------------------------|

e|---------------------|
B|---------------------|
G|---------------------|
D|-2----4----5---------|
A|-2----4----5---------|
E|----------------X\\--|



Riff 8
Guitar 1                  x3
e|-------------------------|
B|-------------------------|
G|-------------------------|
D|-------------------------|
A|-2----4----5----7-5--4-5-|
E|-0----2----3----5-3--2-3-|
  "Whoa..."
e|----------------|
B|----------------|
G|----------------|
D|----------------|
A|-2----4----5----|
E|-0----2----3----|


Guitar 2
e|-------------------------|
B|-------------------------|
G|-------------------------|
D|-------------------------|
A|-2----4----5----7-5--4-5-|
E|-0----2----3----5-3--2-3-|

e|-------------------------|
B|-------------------------|
G|-------------------------|
D|----------------7-5--4-5-|
A|-2--------------7-5--4-5-|
E|-0----6~---7~------------|

e|---------------------------|
B|---------------------------|
G|---------------------------|
D|---------------------------|
A|-7~---9~--10~--12-10--9-10-|
E|---------------------------|

e|----------------|
B|----------------|
G|----------------|
D|----------------|
A|-7~-------------|
E|------6~---7~---|




Interlude: (Mustaine)
e|---------------------------------|
B|---------------------------------|
G|-9p7p5---7p5-----5---------------|
D|-------9-----9-7---9-7-5-9p7p5---|
A|-------------------------------9-|
E|---------------------------------|

e|---------------------------------|
B|---------------------------------|
G|---------------------------------|
D|-7p5-----5-----------------------|
A|-----9-7---9-7-5-9p7p5---7p5-----|
E|-----------------------9-----9-7-|


[ Tab from: http://www.guitartabs.cc/tabs/m/megadeth/good_mourning_black_friday_tab_ver_3.html ]
Riff 9 (Solo Rhythm)
Guitar 1
e|--------------------|
B|--------------------|
G|--------------------|
D|--------------------|
A|-1--2-------3-2-----|
E|-2--3--0--------5-2-|
              * * * *


Solo (Mustaine)
e|-----------------------------------------------|
B|-----------------------------------------------|
G|-----------------------------------------------|
D|-----------------------------------------------|
A|-----------------------------------------------|
E|-----------------------------------------------|

e|-----------------------------------------------|
B|-----------------------------------------------|
G|-----------------------------------------------|
D|-----------------------------------------------|
A|-----------------------------------------------|
E|-----------------------------------------------|

e|-----------------------------------------------|
B|-----------------------------------------------|
G|-----------------------------------------------|
D|-----------------------------------------------|
A|-----------------------------------------------|
E|-----------------------------------------------|

e|-----------------------------------------------|
B|-----------------------------------------------|
G|-----------------------------------------------|
D|-----------------------------------------------|
A|-----------------------------------------------|
E|-----------------------------------------------|

End solo



Riff 10
Guitar 1          x4
e|-----------------|------|
B|-----------------|------|
G|-----------------|------|
D|-----------------|------|
A|-----------------|------|
E|-2~--0---3~--5~--|--2~--|

Guitar 2           x4
e|------------------|------|
B|------------------|------|
G|------------------|------|
D|--------------7~--|------|
A|-9~--7~--10~------|--9~--|
E|------------------|------|



Black Friday:

Riff 11
Guitar 1
e|------------------------------------------|
B|------------------------------------------|
G|------------------------------------------|
D|------------------------------------------|
A|-----3p2-------4/5------3p2---5p4---2h4---|
E|-222-----5-222-2/3--222-----3-----5-----3-|
   ***     * ***      ***     *     *     *
e|--------------------------------------------|
B|--------------------------------------------|
G|--------------------------------------------|
D|--------------------------------------------|
A|-----3p2-------4/5--5p4---3p2---2p0---------|
E|-222-----5-222-2/3------5-----3-----3-5-3-0-|
   ***     * ***          *     *     * * * *

Guitar 2
e|------------------------------------------|
B|------------------------------------------|
G|------------------------------------------|
D|------------------------------------------|
A|------------------------------------------|
E|------------------------------------------|

e|--------------------------------------------|
B|--------------------------------------------|
G|--------------------------------------------|
D|--------------------------------------------|
A|--------------------5p4---3p2---2p0---------|
E|------------------------5-----3-----3-5-3-0-|
                          *     *     * * * *
e|------------------------------------------|
B|------------------------------------------|
G|------------------------------------------|
D|---------------4/5------------------------|
A|-----3p2-------4/5------3p2---5p4---2h4---|
E|-222-----5-222------222-----3-----5-----3-|
   ***     * ***      ***     *     *     *
e|--------------------------------------------|
B|--------------------------------------------|
G|--------------------------------------------|
D|---------------4/5--------------------------|
A|-----3p2-------4/5--5p4---3p2---2p0---------|
E|-222-----5-222----------5-----3-----3-5-3-0-|
   ***     * ***          *     *     * * * *


Riff 11a
Guitar 1
e|------------------------------------------|
B|------------------------------------------|
G|------------------------------------------|
D|------------------------------------------|
A|-----3p2-------4/5------3p2---5p4---2h4---|
E|-222-----5-222-2/3--222-----3-----5-----3-|
   ***     * ***      ***     *     *     *
   "Killer, intruder..."
e|--------------------------------------------|
B|--------------------------------------------|
G|--------------------------------------------|
D|--------------------------------------------|
A|-----3p2-------4/5--5p4---3p2---2p0---------|
E|-222-----5-222-2/3------5-----3-----3-5-3-0-|
   ***     * ***          *     *     * * * *
   "You see me coming..."

Guitar 2
e|------------------------------------------|
B|------------------------------------------|
G|------------------------------------------|
D|---------------4/5------------------------|
A|-----3p2-------4/5------3p2---5p4---2h4---|
E|-222-----5-222------222-----3-----5-----3-|
   ***     * ***      ***     *     *     *
e|--------------------------------------------|
B|--------------------------------------------|
G|--------------------------------------------|
D|---------------4/5--------------------------|
A|-----3p2-------4/5--5p4---3p2---2p0---------|
E|-222-----5-222----------5-----3-----3-5-3-0-|
   ***     * ***          *     *     * * * *



Riff 12
Guitar 1
e|----------------------------------|
B|----------------------------------|
G|----------------------------------|
D|----------------------------------|
A|-----4p3-------6------4p3-------6-|
E|-333-----4-333-4--333-----4-333-4-|
   ***       ***    ***       ***
   "Bloodthristy demon..."
e|-------------------------------|
B|-------------------------------|
G|-------------------------------|
D|-------------5-6-------------5-|
A|-xxx-7-9--xx-3-4--xx-7-9--xx-3-|
E|-xxx-5-7--xx------xx-5-7--xx---|
   "...fiend..."
e|----------------------------------|
B|----------------------------------|
G|----------------------------------|
D|----------------------------------|
A|-----4p3-------6------4p3-------6-|
E|-333-----4-333-4--333-----4-333-4-|
   ***       ***    ***       ***
   "Bludgenous slaughters..."
e|--------------------------------|
B|--------------------------------|
G|--------------------------------|
D|-------------5-6-----9-11-----6-|
A|-xxx-7-9--xx-3-4--xx-7--9--xx-4-|
E|-xxx-5-7--xx------xx-------xx---|
   "...deeds..."

Guitar 2
e|----------------------------------|
B|----------------------------------|
G|----------------------------------|
D|---------------6----------------6-|
A|-----4p3-------6------4p3-------6-|
E|-333-----4-333----333-----4-333---|
   ***       ***    ***       ***
   "Bloodthristy demon..."
e|-------------------------------|
B|-------------------------------|
G|-------------------------------|
D|-------------5-6-------------5-|
A|-xxx-7-9--xx-3-4--xx-7-9--xx-3-|
E|-xxx-5-7--xx------xx-5-7--xx---|
   "...fiend..."
e|----------------------------------|
B|----------------------------------|
G|----------------------------------|
D|---------------6----------------6-|
A|-----4p3-------6------4p3-------6-|
E|-333-----4-333----333-----4-333---|
   ***       ***    ***       ***
   "Bludgenous slaughters..."
e|--------------------------------|
B|--------------------------------|
G|--------------------------------|
D|-------------5-6-----9-11-----6-|
A|-xxx-7-9--xx-3-4--xx-7--9--xx-4-|
E|-xxx-5-7--xx------xx-------xx---|
   "...deeds..."


Play Riff 11a "My hammer's a cold..."
Play Riff 12  "I unleash my hammer..."
Play Riff 11a  with this additional section:
e|-----------------------------------------------|
B|-----------------------------------------------|
G|-----------------------------------------------|
D|----------------------------------/11---(11)\--|
A|-7p6---5p4---3p2---2p0---4--------/-9----(9)\--|
E|-----7-----5-----3-----3-2---------------------|
       *     *     *     *


Riff 13
e|-----------------------------|
B|-----------------------------|
G|-----------------------------|
D|-----------------------------|
A|--------3p2p0----2h3p2h3p2p0-|
E|-2--2-5-------2--------------|



Riff 13a                      x6
e|-----------------------------|
B|-----------------------------|
G|-----------------------------|
D|-----------------------------|
A|--------3p2p0----2h3p2h3p2p0-|
E|-2--2-5-------2--------------|
   "Their bodies convulse..."
e|--------------------|
B|--------------------|
G|---------/11--------|
D|-4-------/11--------|
A|-4-------/-9--------|
E|-2------------------|
   "...take out the organs..."


Riff 14
e|------------------------------|
B|------------------------------|
G|------------------------------|
D|----------------------5-------|
A|------------------8-7-3-8-7-5-|
E|-3333333333333333-6-5---6-5-3-|
   ****************
   "I lurk in the alley..."
e|-----------------------------|
B|-----------------------------|
G|-----------------------------|
D|-----------------------------|
A|--------3p2p0----2h3p2h3p2p0-|
E|-2--2-5-------2--------------|
  "...kill..."
e|-----------------------------|
B|-----------------------------|
G|-----------------------------|
D|-----------------------------|
A|--------3p2p0----2h3p2h3p2p0-|
E|-2--2-5-------2--------------|


Riff 15
e|---------------------------------------|
B|---------------------------------------|
G|---------------------------------------|
D|--------------------------------4/5----|
A|--------------7/8--000000000000-2/3--4-|
E|-333333333333-5/6--------------------2-|
   ************      ************
  "A merciless butcher..."


Riff 16
e|-------------------------------------|
B|-------------------------------------|
G|-------------------------------------|
D|-------------------------------5-4-2-|
A|-------------------------------3-2-0-|
E|-0-2222222-0-2222222-0-2222222-------|
   * ******* * ******* * *******
                                "Cut you down..."
e|-------------------------------------|
B|-------------------------------------|
G|-------------------------------------|
D|-------------------------------7-6-4-|
A|-------------------------------5-4-2-|
E|-2-4444444-2-4444444-2-4444444-------|
   * ******* * ******* * *******
                                    "I..."

Riff 16a
Guitar 1
e|-----------------------------------------|
B|-----------------------------------------|
G|-----------------------------------------|
D|-----------------------------------------|
A|-0-2222222-0-2222222-2-4444444-2-4444444-|
E|-----------------------------------------|
   * ******* * ******* * ******* * *******
   "...see you..."
e|-----------------------------------------|
B|-----------------------------------------|
G|-----------------------------------------|
D|-----------------------------------------|
A|-3-5555555-4-6666666-5-7777777-6-8888888-|
E|-----------------------------------------|
   * ******* * ******* * ******* * *******
   "...and I'm waiting..."              "For black friday!"

Guitar 2
e|-----------------------------------------|
B|-----------------------------------------|
G|-----------------------------------------|
D|-----------------------------------------|
A|-----------------------------------------|
E|-----------------------------------------|

e|-----------------------------------------|
B|-----------------------------------------|
G|-----------------------------------------|
D|-----------------------------------------|
A|-----------------------------------------|
E|-----------------------------------------|



Riff 17 (Solo Rhythm)
e|--------------------------------|
B|--------------------------------|
G|--------------------------------| ----|
D|--------------------------2-2---|     |
A|--------------------------0-0-2-|     |
E|-222222222222222222222222-----0-|     |
   ************************             |--> Play 3x
e|--------------------------------|     |
B|--------------------------------|     |
G|--------------------------------|     |
D|--------------------------5-4-2-| ----|
A|--------------------------3-2-0-|
E|-222222222222222222222222-------|
   ************************

e|--------------------------------|
B|--------------------------------|
G|--------------------------------|
D|--------------------------2-2---|
A|--------------------------0-0-2-|
E|-222222222222222222222222-----0-|
   ************************
e|-----------------------------------------|
B|-----------------------------------------|
G|-----------------------------------------|
D|--------------------------5-4-2-5--5-4-2-|
A|--------------------------3-2-0-3--3-2-0-|
E|-222222222222222222222222----------------|
   ************************


Solo (Poland)
e|-----------------------------------------------|
B|-----------------------------------------------|
G|-----------------------------------------------|
D|-----------------------------------------------|
A|-----------------------------------------------|
E|-----------------------------------------------|

e|-----------------------------------------------|
B|-----------------------------------------------|
G|-----------------------------------------------|
D|-----------------------------------------------|
A|-----------------------------------------------|
E|-----------------------------------------------|

e|-----------------------------------------------|
B|-----------------------------------------------|
G|-----------------------------------------------|
D|-----------------------------------------------|
A|-----------------------------------------------|
E|-----------------------------------------------|

e|-----------------------------------------------|
B|-----------------------------------------------|
G|-----------------------------------------------|
D|-----------------------------------------------|
A|-----------------------------------------------|
E|-----------------------------------------------|

End Solo


Play Riff 13a  "...intruder..."
Play Riff 14   "Bloodthirsty demon..."
Play Riff 15   "A merciless butcher..."
Play Riff 17   "It's black friday!"


Ending
e|--------------------------------|
B|--------------------------------|
G|--------------------------------|
D|--------------------------2-2---|
A|--------------------------0-0-2-|
E|-222222222222222222222222-----0-|
   ************************
                      "It's black friday..."
e|--------------------------------|
B|--------------------------------|
G|--------------------------------|
D|--------------------------5-4-2-|
A|--------------------------3-2-0-|
E|-222222222222222222222222-------|
   ************************
                      "Write the devil..."
e|-----------------|
B|-----------------|
G|-----------------|
D|-5-4-2--5-4-2----|
A|-3-2-0--3-2-0-4\-|
E|--------------2\-|
  "...devil on the, devil on the wall."



Notation:

10^        = bend a quarter step.
10b11      = bend a half step.
10b12      = bend a full step.
10b12r10   = bend and release.
[10]12     = pre-bend.
[10]12r10  = pre-bend and release.
{14}       = pick the 14th fret while holding the most
             previous bend.
<17>       = touch the string above the 17th fret while
             previous note(s) is(are) still ringing.

10b13*     = tremolo bar bend, from the 10th fret to the 13th fret.
7d4*       = tremolo bar dive, from the 7th fret to the 4th fret.
12~*       = tremolo bar vibrato.

x   =  mute with fret-hand
*   =  palm mute
X\\ =  pick slide
h   =  hammer-on
p   =  pull-off
~   =  vibrato
t   =  finger tap
/   =  slide up
\   =  slide down
h.  =  natural harmonics
a   =  artificial harmonics
(9) =  ghost note
tm  =  trem picking
tr  =  trill
Comments