Megadeth - Go To Hell Chords & Tabs

 

Go To Hell Chords & Tabs

Megadeth Chords & Tabs

Version: 1 Type: Tab 0 ratings
1 star 2 stars 3 stars 4 stars 5 stars
comments

Go To Hell Tab

   
 Megadeth
Go to Hell

Gtr I (E A D G B E) - 'Untitled'
Gtr II (E A D G B E) - 'Untitled'
Gtr III (E A D G B E) - 'Untitled'
Gtr IV (E A D G B E) - 'Untitled'

 Intro
  Moderate Rock Q=126      Half time Q=64
                           N.C.
 4/4
  Gtr I
                             ~            ~
|---------|-------------||---------------------------|
|---------|-------------||---------------------------|
|---------|-------------||---------------------------|
|---------|-------------||---------------------------|
|---------|-----2-------||-5s7--2-------5s6--2-------|
|---------|-------3-2-1-||--------3-2-1--------3-2-1-|
|
| Gtr II
|                            ~            ~
|---------|-------------||---------------------------|
|---------|-------------||---------------------------|
|---------|-------------||---------------------------|
|---------|-------------||--------------2s4----------|
|---------|-----2-------||-5s7--2------------2-------|
|---------|-------3-2-1-||--------3-2-1--------3-2-1-|


    ~            ~
|-----------------------------|
|-----------------------------|
|-----------------------------|
|-----------------------------|
|-4s5--2-------2s4--2---------|
|--------3-2-1--------3-2-1---|
|
|   ~            ~
|-----------------------------|
|-----------------------------|
|-----------------------------|
|-4s5----------5s7------------|
|------2------------2---------|
|--------3-2-1--------3-2-1---|


  C5              B5          N.C.
 7/8                           2/4
  Gtr III
  PM------------|                       PM----|
|-------------3-6-7-6-7-6-7-6-|-7-5-------------||
|-----------5-----------------|-----7-4---------||
|-------3-5-------------------|---------4-------||
|---2-5-----------------------|-----------5-4-3-||
|-3---------------------------|-----------------||
|-----------------------------|-----------------||
|
| Gtrs I, II
|                               PM----------------
|-----------------------------|-----------------||
|-----------------------------|-----------------||
|-5---------------4-----------|-----------------||
|-5---------------4-----------|-----------------||
|-3---------------2-----------|-2-2-2-2-2-------||
|-----------------------------|-----------3-2-1-||


 4/4
  ~
|---------------------------------|
|---------------------------------|
|---------------------------------|
|-2-------------------------------|
|---------------------------------|
|---------------------------------|
|
|-----|   PM      PM--|   PM
|---------------------------------|
|---------------------------------|
|-------0---------------0---------|
|-----4-----4-2-------4---0-4-2---|
|---2-----3-----3---4-----------3-|
|-0---------------0---------------|


   ~~~
|-----------------------------------|
|-----------------------------------|
|-----------------------------------|
|-(2)-------------------------------|
|-----------------------------------|
|-----------------------------------|
|
|  PM---|   PM      PM--|   PM-------
|-----------------------------------|
|-----------------------------------|
|---------0---------------0---------|
|-------4-----4-2-------4-----------|
|-----2-----3-----3---1-----2-------|
|--0----------------2---------3-2-1-|


|---------------------------------|---------------------------------||
|---------------------------------|---------------------------------||
|---------------------------------|---------------------------------||
|---------------------------------|---------------------------------||
|---------------------------------|---------------------------------||
|---------------------------------|---------------------------------||
|
|-----|   PM      PM--|   PM        PM--|   PM      PM--|   PM----|
|---------------------------------|---------------------------------||
|---------------------------------|---------------------------------||
|-------0---------------0---------|-------0---------------0---------||
|-----4-----4-2-------4---0-4-2---|-----4-----4-2-------4-----------||
|---2-----3-----3---4-----------3-|---2-----3-----3---1-----2-------||
|-0---------------0---------------|-0---------------2---------3-2-1-||


 1st Verse
  Double time Q=126
  E5                   F5         E5                   Eb5
  Gtrs I, II
     PM------|     PM                PM------|     PM
|----------------|--------------|----------------|----------|
|----------------|--------------|----------------|----------|
|----------------|--------------|----------------|----------|
|-2------------2-|---2-3----3---|-2------------2-|---2-1----|
|-2------------2-|---2-3--3-3---|-2------------2-|---2-1----|
|-0--0-0-0-0-0---|-0------1-----|----0-0-0-0-0---|-0--------|


  E5                   F5         E5                   Eb5N.C.
     PM------|     PM                PM------|     PM
|----------------|--------------|----------------|----------------||
|----------------|--------------|----------------|----------------||
|----------------|--------------|----------------|----------------||
|-2------------2-|---2-3----3---|-2------------2-|---2-1----------||
|-2------------2-|---2-3--3-3---|-2------------2-|---2-1--2-------||
|-0--0-0-0-0-0---|-0------1-----|----0-0-0-0-0---|-0--------3-2-1-||


  Half time Q=64
  N.C.
  Gtr III
|---------------------------|----------------------------|
|---------------------------|----------------------------|
|---------------------------|----------------------------|
|---------------------------|----------------------------|
|---------------------------|-------------------------1/-|
|---------------------------|----------------------------|
|
| Gtr I
|   ~            ~              ~            ~
|---------------------------|----------------------------|
|---------------------------|----------------------------|
|---------------------------|----------------------------|
|---------------------------|----------------------------|
|-5s7--2-------5s6--2-------|-4s5--2-------2s4--2--------|
|--------3-2-1--------3-2-1-|--------3-2-1--------3-2-1--|
|
| Gtr II
|   ~            ~              ~            ~
|---------------------------|----------------------------|
|---------------------------|----------------------------|
|---------------------------|----------------------------|
|--------------2s4----------|-4s5----------5s7-----------|
|-5s7--2------------2-------|------2------------2--------|
|--------3-2-1--------3-2-1-|--------3-2-1--------3-2-1--|


  Faster Q=200
  C5
|--------------------|---------------------|
|--------------------|---------------------|
|-2------(2)b3-(2)b3-|--2b4--2b4--[2]b4----|
|--------------------|---------------------|
|--------------------|---------------------|
|--------------------|---------------------|
|
|--------------------|---------------------|
|--------------------|---------------------|
|-5------------------|-(5)-----------------|
|-5------------------|-(5)-----------------|
|-3------------------|-(3)-----------------|
|--------------------|---------------------|
|
|--------------------|---------------------|
|--------------------|---------------------|
|-5------------------|-(5)-----------------|
|-5------------------|-(5)-----------------|
|-3------------------|-(3)-----------------|
|--------------------|---------------------|


                                  Half time feel Q=100
  B5                        F5    N.C.    E5 N.C.    F5
  Gtr III
  ~~~~~~~~~~~~~~~~~
|------------|-----------------||-----------------------|
|------------|-----------------||-----------------------|
|-2b4--------|-(2)----(2)/-----||-----------------------|
|------------|-----------------||-----------------------|
|------------|-----------------||-----------------------|
|------------|-----------------||-----------------------|
|
| Gtrs I, II                   Gtr I
|                                 PM----|    PM----|
|------------|-----------------||-----------------------|
|------------|-----------------||-----------------------|
|-4----------|-(4)-------------||-----------------------|
|-4----------|-(4)----------3--||---------2----------3--|
|-2----------|-(2)----------3--||-2-2-----2----------3--|
|------------|--------------1--||-0-0-0-0----0-0-0-0----|


  N.C.    D5 N.C.    G5F#F5  N.C.    E5 N.C.    F5
  Gtr I              Gtrs I, II
  PM----|    PM----|         PM----|    PM----|
|--------------------------|-----------------------|
|--------------------------|-----------------------|
|--------------------------|-----------------------|
|---------0----------5-4-3-|---------2----------3--|
|---------0----------5-4-3-|-2-2-----2----------3--|
|-0-0-0-0----0-0-0-0-------|-0-0-0-0----0-0-0-0----|


  N.C.    D5 N.C.    G5F#F5
  PM----|    PM----|
|---------------------------||
|---------------------------||
|---------------------------||
|---------0----------5-4-3--||
|---------0----------5-4-3--||
|-0-0-0-0----0-0-0-0--------||


   2nd, 3rd Verse
    N.C.    E5 N.C.    F5   N.C.    D5 N.C.    G5F#F5  N.C.    E5 N.C.    F5
    PM----|    PM----|      PM----|    PM----|         PM----|    PM----|
||------------------------|--------------------------|------------------------|
||o-----------------------|--------------------------|------------------------|
||------------------------|--------------------------|------------------------|
||----------2----------3--|---------0----------5-4-3-|---------2----------3---|
||o---------2----------3--|---------0----------5-4-3-|---------2----------3---|
||--0-0-0-0----0-0-0-0----|-0-0-0-0----0-0-0-0-------|-0-0-0-0----0-0-0-0-----|


  N.C.    D5 N.C.    G5F#F5  N.C.    E5 N.C.    F5   N.C.    D5 N.C.    G5F#F5
  PM----|    PM----|         PM----|    PM----|      PM----|    PM----|
|--------------------------|-----------------------|---------------------------|
|--------------------------|-----------------------|---------------------------|
|--------------------------|-----------------------|---------------------------|
|---------0----------5-4-3-|---------2----------3--|---------0----------5-4-3--|
|---------0----------5-4-3-|---------2----------3--|---------0----------5-4-3--|
|-0-0-0-0----0-0-0-0-------|-0-0-0-0----0-0-0-0----|-0-0-0-0----0-0-0-0--------|


  N.C.    E5 N.C.    F5    G#5 N.C.              (F5)
  PM----|    PM----|   PM      PM------------------|
|------------------------|------------------------------||
|------------------------|-----------------------------o||
|------------------------|------------------------------||
|---------2----------3---|--6------------------------3--||
|---------2----------3---|--6----5-3-2---2-1-------3---o||
|-0-0-0-0----0-0-0-0---0-|-(4)-0-------4-----1-0-1------||


      E5         F5       D5      A5   Ab5 G5      F#5 F5
  Gtr III
                    ~~~~
|------------------------------------------------------------|
|-----------------------------5h6---12p6p5-----------5-------|
|-----7b9==(7)-----(7)r----------------------7-6h7-----7p6s4-|
|---x--------------------------------------------------------|
|-x----------------------------------------------------------|
|------------------------------------------------------------|
|
| Gtrs I, II
|------------------------------------------------------------|
|------------------------------------------------------------|
|------------------------------------------------------------|
|-----2----------3--------0-------7----6---5---5---4---3-----|
|-----2----------3--------0-------7----6---5---5---4---3-----|
|-----------0--0----0---0---0-0------------------------------|


  E5                 F5          D5        A5  G5       F#5F5
                                         ~
|------------------------------------------------------------------|
|------------------------------------------------------------------|
|-6b9==(6)r==(6)p4-----4-6p4-----4---------------------------------|
|------------------5-----------5---5---4---------------------6s====|
|----------------------------------------7-------(7)s19s11s6-------|
|------------------------------------------------------------------|
|
|------------------------------------------------------------------|
|------------------------------------------------------------------|
|------------------------------------------------------------------|
|-2------------------3-----------0---------7-6-5------5--4-3-------|
|-2------------------3-----------0---------7-6-5------5--4-3-------|
|----------0-----0-------0---0-------0---0-------------------------|


  E5               F5              D5               A5   Ab5   G5         F#5  F5
|---------------15---19-21p19---15--------------------------15---17-18p17p==15----------|
|------------17--------------------17--------------------17--------------------17-15-15-|
|----16---18--------------------------18---16----16---18--------------------------------|
|-17------------------------------------------17----------------------------------------|
|---------------------------------------------------------------------------------------|
|---------------------------------------------------------------------------------------|
|
|---------------------------------------------------------------------------------------|
|---------------------------------------------------------------------------------------|
|---------------------------------------------------------------------------------------|
|--2---------------3----------------0---------------7-----6----5-----5----4-----3-------|
|--2---------------3----------------0---------------7-----6----5-----5----4-----3-------|
|-------0-----0----------0----0----------0-----0----------------------------------------|


  E5              F5           D5
|-17b19---(17)-17p==15-------------------||
|----------------------17b20---(17)\-----||
|----------------------------------------||
|----------------------------------------||
|----------------------------------------||
|----------------------------------------||
|
|----------------------------------------||
|----------------------------------------||
|----------------------------------------||
|--2--------------3--------------0-------||
|--2--------------3--------------0-------||
|-------0---0-----------0----0-----------||


   4th, 5th Verse
            E5         F5           D5         G5F#F5          E5         F5
    PM----|    PM----|      PM----|    PM----|         PM----|    PM----|
||------------------------|--------------------------|------------------------|
||o-----------------------|--------------------------|------------------------|
||------------------------|--------------------------|------------------------|
||----------2----------3--|---------0----------5-4-3-|---------2----------3---|
||o---------2----------3--|---------0----------5-4-3-|---------2----------3---|
||--0-0-0-0----0-0-0-0----|-0-0-0-0----0-0-0-0-------|-0-0-0-0----0-0-0-0-----|


          D5         G5F#F5          E5         F5           D5         G5F#F5
  PM----|    PM----|         PM----|    PM----|      PM----|    PM----|
|--------------------------|-----------------------|---------------------------|
|--------------------------|-----------------------|---------------------------|
|--------------------------|-----------------------|---------------------------|
|---------0----------5-4-3-|---------2----------3--|---------0----------5-4-3--|
|---------0----------5-4-3-|---------2----------3--|---------0----------5-4-3--|
|-0-0-0-0----0-0-0-0-------|-0-0-0-0----0-0-0-0----|-0-0-0-0----0-0-0-0--------|


          E5         F5    G#5 N.C.              (F5)
  PM----|    PM----|   PM      PM------------------|
|------------------------|------------------------------||
|------------------------|-----------------------------o||
|------------------------|------------------------------||
|---------2----------3---|--6------------------------3--||
|---------2----------3---|--6----5-3-2---2-1-------3---o||
|-0-0-0-0----0-0-0-0---0-|-(4)-0-------4-----1-0-1------||


  E5    F5        D5        A5AbG5  F#5 F5
  Gtr III
  ~~~~~~~~~~~~~~~~~                     ~~~
|-----------------------------------------|
|-----------------------------------------|
|-------------------------7s9-8-7---------|
|-------8-(8)---8s5---(5)---------9-[8]-7-|
|-7---------------------------------------|
|-----------------------------------------|
|
| Gtrs I, II
|-----------------------------------------|
|-----------------------------------------|
|-----------------------------------------|
|-2-----3---------0---------7-6-5-5--4--3-|
|-2-----3---------0---------7-6-5-5--4--3-|
|---0-0----0--0-----0--0------------------|


  E5      F5                   D5        A5  AbG5    F#F5
 ~~~~~~
|---------------------------------------------------------|
|----------------------------------8b12==(8)r====(8)-5----|
|------------------------------------------------------7--|
|-(7)s5-7-[7]b9==([7])r([7])p5-7-5------------------------|
|---------------------------------------------------------|
|---------------------------------------------------------|
|
|---------------------------------------------------------|
|---------------------------------------------------------|
|---------------------------------------------------------|
|--2-------3-------------------0----------7--6-5--5--4-3--|
|--2-------3-------------------0----------7--6-5--5--4-3--|
|-----0-0----------------0---0---0-0----------------------|


  E5             F5    D5       A5AbG5        F#F5
|-------------------------------7-8-10-8h10p8p7-8----|
|----------------------[7]-8-10-------------------10-|
|-(7)---11s8-(8)s==9-9-------------------------------|
|-----x----------------------------------------------|
|----------------------------------------------------|
|----------------------------------------------------|
|
|----------------------------------------------------|
|----------------------------------------------------|
|----------------------------------------------------|
|--2-------------3------0-------7-6--5----5---4-3----|
|--2-------------3------0-------7-6--5----5---4-3----|
|--------0----0----0-0-----0--0----------------------|


  E5               F5            D5
|-12p10p8-7--------10p8p7--------------||
|-----------10p7-7--------10-8p7-------||
|--------------------------------9-----||
|--------------------------------------||
|--------------------------------------||
|--------------------------------------||
|
|--------------------------------------||
|--------------------------------------||
|--------------------------------------||
|--2----------------3------------0-----||
|--2----------------3------------0-----||
|-------0----0----------0----0---------||


    E5            G5    D5E5D5  F5  E5          G5A5A5D5E5D5  F5
    Gtrs I, II
      PM|   PM|                       PM|   PM|
||--------------------------------|------------------------------||
||o-------------------------------|-----------------------------o||
||--------------------------------|------------------------------||
||--2-----2-----3s5-(5)-0-2-0-2s3-|-2-----2-----5s7-5-0-2-0-2s3--||
||o-2-----2-----3s5-(5)-0-2-0-2s3-|-2-----2-----5s7-5-0-2-0-2s3-o||
||--0-0-0---0-0-------------------|---0-0---0-0------------------||


 Guitar Solo
  F#5                 A5            E5    G5
  Gtr III
|-----2---------------14------------2-------------------|
|-------5p==2------------17p14--------5p2---------------|
|-4b6---------16b18-------------4b6-------2b3-----------|
|-----------------------------------------------4p2-----|
|-----------------------------------------------------4-|
|-------------------------------------------------------|
|
| Gtrs I, II
|-------------------------------------------------------|
|-------------------------------------------------------|
|----------------------2-------(2)----------------------|
|----------------------2-------(2)--2-------------------|
|-4-------4---------4--0-------(0)--2-----------4s==5---|
|-2---0---2-------------------------0-----3---1-2s==3---|


  F#5           A5  B5  A5E5    G5
|-------------------------------------|
|-------------------------------------|
|-2---------4-----------2-------------|
|-2-4p2-----4---4p2-----2-4p2---2-----|
|---------4-----------4-------4-2-----|
|-------------------------------------|
|
|-------------------------------------|
|-------------------------------------|
|---------------2---4---2-------------|
|---------------2---4---2-2-----------|
|-4-----4-------0-------0-2---------5-|
|-2-0---2-----2-----------0-----3-1-3-|


  E5                               G5        D5  E5  D5      F5
|------------------------------------------------------------------|
|------------------------------------------------------------------|
|-[2]b4====[2]---[2]---[2]---[2]-----[2]-[2]-[2]-[2]---[2]r====[2]-|
|------------------------------------------------------------------|
|------------------------------------------------------------------|
|------------------------------------------------------------------|
|
|        PM----|        PM-|
|------------------------------------------------------------------|
|------------------------------------------------------------------|
|------------------------------------------------------------------|
|--2-----------------2-----------3s5-----(5)--0---2--0-----2s3-----|
|--2-----------------2-----------3s5-----(5)--0---2--0-----2s3-----|
|--0-----0-----0--------0--0---------------------------------------|


  E5                G5A5G5   D5E5   D5  F5
|-----------------------------------------||
|-----------------------------------------||
|-0tr2------------------------------------||
|------------0tr2-------------------------||
|-----------------------0tr2--------------||
|------------------------------0tr3-------||
|
|      PM|   PM---|
|-----------------------------------------||
|-----------------------------------------||
|-----------------------------------------||
|-2--------2--------5s7-5----0-2----0-2s3-||
|-2--------2--------5s7-5----0-2----0-2s3-||
|------0-0---0----0-----------------------||


    (Emadd9)            (Cadd11)
                          ~~~~
|------------------------------------------12-|
|------------------------------------------12-|
|----------9-11-11b12---(11)------------12----|
|-7s9s==10---------------------10-10s14-------|
|---------------------------------------------|
|---------------------------------------------|
|
|---------------------------------------------|
|---------------------------------------------|
|----------0--------------0-------------------|
|--------4----4--------------4--2-------------|
|-0h2-2----------2h===3--(3)-------------3----|
|---0-----------------------------------------|

[ Tab from: http://www.guitartabs.cc/tabs/m/megadeth/go_to_hell_tab.html ]
  (C#sus4b5)                (Dsus4)
                              ~~~~
|-15p12----15-12----15b17---(15)-12-------------12-------------------|
|-------12-------12-----------------15p12----12----15p12-------------|
|-----------------------------------------14-------------14b16r(14)p=|
|--------------------------------------------------------------------|
|--------------------------------------------------------------------|
|--------------------------------------------------------------------|
|
|--------------------------------------------------------------------|
|--------------------------------------------------------------------|
|--------------0--------------0--------------------------------------|
|-----------4-----4---------------4--------2-------------------------|
|--3s=4--4-----------4s===5--(5)-----------------------3-------------|
|--0-----------------------------------------------------------------|


    (Emadd9)                           (Cadd11)
|---------------------15---16-17-16b18---(16)-17pb18r(17)p15-17p15-------|
|------------15-16-17----------------------------------------------17b19-|
|---12-14s16-------------------------------------------------------------|
|------------------------------------------------------------------------|
|------------------------------------------------------------------------|
|------------------------------------------------------------------------|
|
|------------------------------------------------------------------------|
|------------------------------------------------------------------------|
|-------------------0----------------------0-----------------------------|
|----------------4-------4-----------------------------4------2----------|
|-0h=2--------2----------------2h======3--(3)-----------------------3----|
|----0-------------------------------------------------------------------|


  (F#7b9)                          (G)
|----------------------------------------------15----13----14------|
|-(17)-17p15h17p15------14b15========(14)r(14)----14----15----13s==|
|--------------------16--------------------------------------------|
|------------------------------------------------------------------|
|------------------------------------------------------------------|
|------------------------------------------------------------------|
|
|------------------------------------------------------------------|
|------------------------------------------------------------------|
|------------------0-------------------0---------------------------|
|-----------------------------------------------4-----2------------|
|-------------1---------------------------------------------2------|
|---2--------------------2-----2-2s3--(3)--------------------------|


    (Emadd9)                  (Cadd11)
     ~~
|-----------------12---------------12----------------12----12-14-17p12-|
|---12-15b17-(15)----12-15b17-(15)-----12-15b17-(15)----12-------------|
|----------------------------------------------------------------------|
|----------------------------------------------------------------------|
|----------------------------------------------------------------------|
|----------------------------------------------------------------------|
|
|----------------------------------------------------------------------|
|----------------------------------------------------------------------|
|------------------0----------------0----------------------------------|
|--------------4------4--------------------4----------2----------------|
|-0h=2--2----------------2h=====3--(3)-------------------------3-------|
|----0-----------------------------------------------------------------|


  (C#sus4b5)                            (Dsus4)
                                                        ~~~~
|---------------------------15------------------------------------|
|-15-12------15p12----12-15----12---------------------------------|
|---------14-------14-------------14-14-12s10-(10)b11-(10)---10s3-|
|-----------------------------------------------------------------|
|-----------------------------------------------------------------|
|-----------------------------------------------------------------|
|
|-----------------------------------------------------------------|
|-----------------------------------------------------------------|
|-------------------------0---------------------0-----------------|
|-------------------4-----------4-----------------------4--2------|
|--3s===4-----4-----------------------4s=5-----(5)--------------3-|
|--0--------------------------------------------------------------|


    (Emadd9)             (Cadd11)
|---10s12-12-12-12s15-15-15-15s=19-19-19-19s22-22-22-|
|----------------------------------------------------|
|----7s=9--9--9--9s12-12-12-12s=16-16-16-16s19-19-19-|
|----------------------------------------------------|
|----------------------------------------------------|
|----------------------------------------------------|
|
|----------------------------------------------------|
|----------------------------------------------------|
|----------------0-----------0-----------------------|
|-------------4-----4---------------4-----2----------|
|-0h=2-----2-----------2h=3-(3)-----------------3----|
|----0-----------------------------------------------|


  (F#7b9)                            (G)
                                                       ~~~~
|------------------------------------17s=19-20-22b24-(22)---||
|------------------------------17-20------------------------||
|-18b21==(18)r(18)s16----16-19------------------------------||
|---------------------19------------------------------------||
|-----------------------------------------------------------||
|-----------------------------------------------------------||
|
|-----------------------------------------------------------||
|-----------------------------------------------------------||
|----------------------0--------------0---------------------||
|--------------------------------------------4---------2----||
|-------------------1-------------------------------------2-||
|--2----------------------2--2--2s=3-(3)--------------------||


  E5               G5  F#5 G5            G5  F#5 F5
  Gtr III
   ~~~~~~
|-22pb24-----------x\------------------------------|
|------------------x\------------------------------|
|--------------------------------------------------|
|--------------------------------------------------|
|--------------------------------------------------|
|--------------------------------------------------|
|
| Gtr IV
|--------------------------------------------------|
|--------------------------------------------------|
|--4p====2p==0-----4p2p==0---5p2p==0-----5p2p==0---|
|--------------4-----------2---------4-----------2-|
|--------------------------------------------------|
|--------------------------------------------------|
|
| Gtrs I, II
|--------------------------------------------------|
|--------------------------------------------------|
|--------------------------------------------------|
|--2---------------5---4---3-3-----------5---4---3-|
|--2---------------5---4---3-3-----------5---4---3-|
|----------0---0-0---------------0---0-0-----------|


  D5          G5  F#5 F5A5  Ab5 G5        F#5 F5
|-----------------------------------------------------|
|-----------------------------------------------------|
|-----------------------------------------------------|
|-----------------------------------------------------|
|-----------------------------------------------------|
|-----------------------------------------------------|
|
|-----------------------------------------------------|
|-----------------------3p1p==0-----------------------|
|-6p2p==0-----6p2p==0-----------4p2p0-----------------|
|---------4-----------2---------------4p2p==0---------|
|---------------------------------------------3p2p0---|
|-----------------------------------------------------|
|
|-----------------------------------------------------|
|-----------------------------------------------------|
|-----------------------------------------------------|
|-0-----------5---4---3-7---6---5-----5---4---3-------|
|-0-----------5---4---3-7---6---5-----5---4---3-------|
|-----0---0-0-----------------------------------------|


  E5          G5  F#5 F5            G5  F#5 F5
  Gtr IV
|---------------------------------------------|
|---------------------------------------------|
|-4p2p==0-----4p2p==0---5p2p==0-----5p2p==0---|
|---------4-----------2---------4-----------2-|
|---------------------------------------------|
|---------------------------------------------|
|
| Gtrs I, II
|---------------------------------------------|
|---------------------------------------------|
|---------------------------------------------|
|-2-----------5---4---3-3-----------5---4---3-|
|-2-----------5---4---3-3-----------5---4---3-|
|-----0---0-0---------------0---0-0-----------|


  D5          G5  F#5 E5A5  Ab5 G5        F#5 F5
|-----------------------------------------------------|
|-----------------------3p1p==0-----------------------|
|-6p2p==0-----6p2p==0-----------4p2p0-----------------|
|---------4-----------2---------------4p2p==0---------|
|---------------------------------------------3p2p0---|
|-----------------------------------------------------|
|
|-----------------------------------------------------|
|-----------------------------------------------------|
|-----------------------------------------------------|
|-0-----------5---4---3-7---6---5-----5---4---3-------|
|-0-----------5---4---3-7---6---5-----5---4---3-------|
|-----0---0-0-----------------------------------------|


    (Emadd9)              (Cadd11)
  Gtr III
                                  ~~~~
|-------------------------------------------------17-|
|-----------------17s==19-19b20-(19)---(19)-17-20----|
|---15b17-(15)-16------------------------------------|
|----------------------------------------------------|
|----------------------------------------------------|
|----------------------------------------------------|
|
|----------------------------------------------------|
|----------------------------------------------------|
|------------------0--------------0------------------|
|---------------4----4---------------4---2-----------|
|-0h=2------2-----------2h=3-----(3)------------3----|
|----0-----------------------------------------------|


  (C#sus4b5)                            (Dsus4)
                                                                ~~~~
|-19-22p19p17-------19h22p==19p17----19---20b22==(20)r(20)b22-(20)----|
|-------------20-17---------------20----------------------------------|
|---------------------------------------------------------------------|
|---------------------------------------------------------------------|
|---------------------------------------------------------------------|
|---------------------------------------------------------------------|
|
|---------------------------------------------------------------------|
|---------------------------------------------------------------------|
|-----------------0--------------------------------0------------------|
|--------------4----------4-----------------------------4-------2-----|
|--3s=4-----4----------------------4s===5---------(5)--------------3--|
|--0------------------------------------------------------------------|


    (Emadd9)                     (Cadd11)
     ~~~~~~~~~~~~~~~~
|---22b24======(22)r(22)---21------21-19-----19-17----17-15----15-14----14-|
|-----------------------------22----------20-------19-------17-------15----|
|--------------------------------------------------------------------------|
|--------------------------------------------------------------------------|
|--------------------------------------------------------------------------|
|--------------------------------------------------------------------------|
|
|--------------------------------------------------------------------------|
|--------------------------------------------------------------------------|
|---------------------0----------------0-----------------------------------|
|------------4-----------4-----------------------4--------2----------------|
|-0h=2-----2----------------2h===3----(3)--------------------------3-------|
|----0---------------------------------------------------------------------|


  (F#7b9)                              (G)
                                                    ~~
|-18p15---------------14-13---12-11---------------------------|
|-------17-14-----------------------16---15-11s=17-11---(11)\-|
|-------------15s==12-----------------------------------------|
|-------------------------------------------------------------|
|-------------------------------------------------------------|
|-------------------------------------------------------------|
|
|-------------------------------------------------------------|
|-------------------------------------------------------------|
|----------------0---------------------------0----------------|
|---------------------------------------------------4-2-------|
|-----------1---------------------------------------------2---|
|--2-------------------2----2-----2s===3----(3)---------------|


  F#5                         A5            E5G5
|-19b21-19b21-----19b21-19b21---19b21-19b21---19b21-19b21-----|
|-------------------------------------------------------------|
|-------------------------------------------------------------|
|-------------------------------------------------------------|
|-------------------------------------------------------------|
|-------------------------------------------------------------|
|
|-------------------------------------------------------------|
|-------------------------------------------------------------|
|-------------------------------------------------------------|
|-----------------------------2-(2)---------------------------|
|--4------------4--------4----0-(0)---------2-------------4s5-|
|--2-----0----1-2--------2------------------0--3-----1----2s3-|


  F#5                             A5    B5    A5                      G5
|----------------------------------------------------------------------------------------------|
|-14---------------14-------------14-------------14-------------14-------------14--------------|
|----17p==16p15p14----17p16p15p14----17p16p15p14----17p16p15p14----17p16p15p14----17p16p15p14--|
|----------------------------------------------------------------------------------------------|
|----------------------------------------------------------------------------------------------|
|----------------------------------------------------------------------------------------------|
|
|                               PM
|----------------------------------------------------------------------------------------------|
|----------------------------------------------------------------------------------------------|
|----------------------------------------------------------------------------------------------|
|----------------------------------------------------------------------------------------------|
|--4----------------4--------------7s====9-----7-----------------------------------4s====5-----|
|--2----0-----1-----2-----------1--5s====7-----5-----------0-----------3-----1-----2s====3-----|


  E5                                 G5                 D5       E5    D5     F5
|-17p12---------12----------------------------17--12-------12--------------------------|
|---------15p12------12-15p12--------12-15p12--------15p12----12-15p12--------12-15p12-|
|-------------------------------15---------------------------------------15------------|
|--------------------------------------------------------------------------------------|
|--------------------------------------------------------------------------------------|
|--------------------------------------------------------------------------------------|
|
|       PM---|           PM---|
|--------------------------------------------------------------------------------------|
|--------------------------------------------------------------------------------------|
|--------------------------------------------------------------------------------------|
|--2---------------2---------------3s=5-------(5)--------0--------2----0----2s=3-------|
|--2---------------2---------------3s=5-------(5)--------0--------2----0----2s=3-------|
|--0----0-----0----------0----0--------------------------------------------------------|


  E5                               G5    A5   G5       D5       E5    D5     F5
|-17p12---------12----------------------------17-12-------12-----------------------------|
|---------15p12------12-15p12------12-15p==12-------15p12----12-15p12--------12-15p12----|
|-------------------------------15--------------------------------------15---------------|
|----------------------------------------------------------------------------------------|
|----------------------------------------------------------------------------------------|
|----------------------------------------------------------------------------------------|
|
|       PM---|           PM---|
|----------------------------------------------------------------------------------------|
|----------------------------------------------------------------------------------------|
|----------------------------------------------------------------------------------------|
|--2---------------2----------------5s===7-----5--------0--------2----0----2s=3----------|
|--2---------------2----------------5s===7-----5--------0--------2----0----2s=3----------|
|-------0-----0----------0----0----------------------------------------------------------|


  E5        F5        D5          A5  Ab5 G5      F#5 F5
|-5-4-4-2-2-6-5-5-3-4-7-6---6-4-4-8-8-7-5-5-9-9-8-6-6-10-10-7-6-|
|---------------------------------------------------------------|
|---------------------------------------------------------------|
|---------------------------------------------------------------|
|---------------------------------------------------------------|
|---------------------------------------------------------------|
|
|---------------------------------------------------------------|
|---------------------------------------------------------------|
|---------------------------------------------------------------|
|-2---------3---------0-----------7---6---5---5---4----3--------|
|-2---------3---------0-----------7---6---5---5---4----3--------|
|-----0---0---0---0-------0---0---------------------------------|


  E5        F5            D5           A5    Ab5  G5         F#5  F5
|-9-8-8-6-6-10-10-9-7-7-7-11-11-10-8-8-12-12-11-9-9-13-12-10---10-14-14-13-12-|
|-----------------------------------------------------------------------------|
|-----------------------------------------------------------------------------|
|-----------------------------------------------------------------------------|
|-----------------------------------------------------------------------------|
|-----------------------------------------------------------------------------|
|
|-----------------------------------------------------------------------------|
|-----------------------------------------------------------------------------|
|-----------------------------------------------------------------------------|
|-2----------3-------------0------------7-----6---5-----5----4-----3----------|
|-2----------3-------------0------------7-----6---5-----5----4-----3----------|
|---0---0---------0---0----------0---0----------------------------------------|


  E5             F5                D5             A5    Ab5   G5       F#5   F5
|-14-13-12-10-10-14-14-13-11-11-15-15-14-14-12-12-16-16-15-13-13-17-17-16-14-14-18-16-14-|
|----------------------------------------------------------------------------------------|
|----------------------------------------------------------------------------------------|
|----------------------------------------------------------------------------------------|
|----------------------------------------------------------------------------------------|
|----------------------------------------------------------------------------------------|
|
|----------------------------------------------------------------------------------------|
|----------------------------------------------------------------------------------------|
|----------------------------------------------------------------------------------------|
|--2--------------3-----------------0--------------7-----6-----5-----5--4-----3----------|
|--2--------------3-----------------0--------------7-----6-----5-----5--4-----3----------|
|--------0-----0--------0-----0-----------0-----0----------------------------------------|


                                                                    Do
  E5             F5                D5          N.C.
 3/4
|-17-17-16-14-14-18-18-17-15-15-19-19-18-18-16-20-19-17-17-21-18-21-||
|-------------------------------------------------------------------||
|-------------------------------------------------------------------||
|-------------------------------------------------------------------||
|-------------------------------------------------------------------||
|-------------------------------------------------------------------||
|
|-------------------------------------------------------------------||
|-------------------------------------------------------------------||
|-------------------------------------------------------------------||
|--2--------------3-----------------0-------------------------------||
|--2--------------3-----------------0-----------2-------------------||
|--------0-----0--------0-----0-----------0--------3-----2-----1----||


 6th Verse
 uble time Q=126
  E5                       F5
 4/4
|-24--------------|-(24)--------|
|-----------------|-------------|
|-----------------|-------------|
|-----------------|-------------|
|-----------------|-------------|
|-----------------|-------------|
|
|                     PM
|-----------------|-------------|
|-----------------|-------------|
|-----------------|-------------|
|--2------------2-|------2-3----|
|--2------------2-|------2-3----|
|--0--0-0-0-0-0---|---0---------|


  E5                           Eb5           E5                   F5
    ~~~~
|--------------------|---------------------|----------------|----------|
|-[17]---------------|--15-----------------|----------------|----------|
|-----------------16-|-(16)-14-14----------|----------------|----------|
|--------------------|------------xsxs=x\--|-x--------------|----------|
|--------------------|------------xsxs=x\--|-x--------------|----------|
|--------------------|------------xsxs=x\--|-x--------------|----------|
|
|       PM------|        PM                     PM------|     PM
|--------------------|---------------------|----------------|----------|
|--------------------|---------------------|----------------|----------|
|--------------------|---------------------|----------------|----------|
|---2--------------2-|-------2--1----------|-2------------2-|---2-3----|
|---2--------------2-|-------2--1----------|-2------------2-|---2-3----|
|---0---0-0-0-0-0----|---0-----------------|-0--0-0-0-0-0---|-0--------|


  E5                   Eb5  N.C.
                  2/4      4/4
  Gtrs I, II
     PM------|     PM
|----------------|--------|-----------------|-----------------|
|----------------|--------|-----------------|-----------------|
|----------------|--------|-----------------|-----------------|
|-2------------2-|---2-1--|-----------------|-----------------|
|-2------------2-|---2-1--|-2---------2-----|-----2---------2-|
|-0--0-0-0-0-0---|-0------|---3-2-1-0---3-2-|-1-0---3-2-1-0---|


                     E5
|------------------|----------|----------*|
|------------------|----------|----------*|
|------------------|-9--------|----------*|
|------------------|-9--------|-2--------*|
|---------2--------|-7--------|-2--------*|
|-3-2-1-0---3-2-1/-|-0--------|-0--------*|



Comments