Megadeth - Enter The Arena Chords & Tabs

 

Enter The Arena Chords & Tabs

Megadeth Chords & Tabs

Version: 1 Type: Tab 0 ratings
1 star 2 stars 3 stars 4 stars 5 stars
comments

Enter The Arena Tab

   
Band- Megadeth
Song- Enter The Arena

Tuning: Standard

Riff 1
e|------------------------------------|
B|------------------------------------|
G|------------------------------------|
D|--------6-----------------------8~--|
A|-3-3--x-6----------------3-3--x-8~--|
E|-1-1--x------------------1-1--x-----|


Riff 2
e|-----------------------|
B|-----------------------|
G|-----------------------|
D|--------6-----------8~-|
A|-3-3--x-6----3-3--x-8~-|
E|-1-1--x------1-1--x----|

e|-------------------------|
B|-------------------------|
G|-------------------------|
D|--------6-----------6-8--|
A|-3-3--x-6----3-3--x-4-6--|
E|-1-1--x------1-1--x------|


Ending
e|-------|
B|-------|
G|-------|
D|-------|
A|--3-3--|
E|--1-1--|






Notation:
[ Tab from: http://www.guitartabs.cc/tabs/m/megadeth/enter_the_arena_tab.html ]
10^        = bend a quarter step.
10b11      = bend a half step.
10b12      = bend a full step.
10b12r10   = bend and release.
[10]12     = pre-bend.
[10]12r10  = pre-bend and release.
{14}       = pick the 14th fret while holding the most
             previous bend.
<17>       = touch the string above the 17th fret while
             previous note(s) is(are) still ringing.

10b13*     = tremolo bar bend, from the 10th fret to the 13th fret.
7d4*       = tremolo bar dive, from the 7th fret to the 4th fret.
12~*       = tremolo bar vibrato.

x   =  mute with fret-hand
*   =  palm mute
X\\ =  pick slide
h   =  hammer-on
p   =  pull-off
~   =  vibrato
t   =  finger tap
/   =  slide up
\   =  slide down
h.  =  natural harmonics
a   =  artificial harmonics
(9) =  ghost note
tm  =  trem picking
tr  =  trill
Comments