Megadeth - Ecstasy Chords & Tabs

 

Ecstasy Chords & Tabs

Megadeth Chords & Tabs

Version: 1 Type: Tab 0 ratings
1 star 2 stars 3 stars 4 stars 5 stars
comments

Ecstasy Tab

                           "ECSTASY"
                              BY
                           MEGADETH 

Listen to the song for the timings.
This song is very cool to play and
it include many cool accords.

If you have any questions or comments send it to: 
"megamustain@hotmail.com"

-----------------------------------------------------------------------------
Explanations:  h - hammer on
               b - bend
-----------------------------------------------------------------------------

 Verse 1
 -------

 Listen to the cd for the timings and length...
[ Tab from: http://www.guitartabs.cc/tabs/m/megadeth/ecstasy_tab.html ]
|-5-5--5-5--| --5-5--5-5--| --5-5--5-5--| --3-3--3-3--||
|-6-6--6-6--| --5-5--5-5--| --6-6--6-6--| --3-3--3-3--||
|-7-7--7-7--| --6-6--6-6--| --5-5--5-5--| --4-4--4-4--||
|-7-7-------| --7-7-------| --7-7-------| --5-5-------||
|-5-5-------| -(5-5)------| -(5-5)------| -(3-3)------||
|-----------| ------------| ------------| ------------||



 "Hide The Truth..."

|-3---2---3---0------------||
|-3---3---3---3------------||
|-3---2---3---2---2--3--2--||
|-----------------2--3--2--||
|-----------------0--1--0--||
|--------------------------||

 

 Chours
 ------
    
                        "The Sin I Bring..."
|---------------------| ---------------6-----6-5--||---------||
|---------------------| ---------------5-----5-5--||---------||
|-7-7--6-6--5-5--4-4--| -3-------5----------------||-3-----2-||
|-7-7--7-7--5-5--5-5--| -3---3---5----------------||-3--3--2-||
|-5-5--4-4--3-3--2-2--| -1---3---3--3-----3-------||-1--3--0-||
|---------------------| -----1--------------------||----1----||



Outro
-----

|---------------------||
|---------------------||
|------3---5-5-5-5----||
|--5---3---5-5-5-5----||
|--5---1---3-3-3-3----||
|--3------------------||
Comments