Megadeth - Disconnect Chords & Tabs

 

Disconnect Chords & Tabs

Megadeth Chords & Tabs

Version: 2 Type: Bass Tab 0 ratings
1 star 2 stars 3 stars 4 stars 5 stars
comments

Disconnect Bass Tab

----------------------------------------------------------------------------
			     Megadeth - Disconnect Bass Tab
                             The World Needs A Hero
----------------------------------------------------------------------------

Tabbed By : Hareth (cliffburton...)
e-mail: humble_sex_slave@hotmail.com

Tuning: Standard


Intro
G|-----------------------------------------|
D|----------4-5----------4-5---------------|
A|-----2-6----------2-6----------2-1-------|
E|-0-------------0------------0------5-3-0-|

Verse
G|-----------------------------------------------------|
D|-----------------------------------------------------|
A|-2-3-------------------------------------------------|
E|-----3-0-0-0-0-0-0-0-0-3-3-3-3-3-3-3-3-5-5-5-5-5-3-2-| x2

Pre-Chorus
G|-------------------------------------------------------------|
D|-------------------------------------------------------------|
A|-0-0-3-0-0-5-0-0-3-0-0-5-0-6-0-0-3-0-0-5-0-0-3-0-0-6-0-5-0---|
E|-----------------------------------------------------------0-|
[ Tab from: http://www.guitartabs.cc/tabs/m/megadeth/disconnect_btab_ver_2.html ]
Chorus
G|--------------------------|           G|--------|
D|----------------------4-5-|           D|--------|
A|-7-7-7-7-5-5-5-4--2-6-----|           A|-2-1-0**| (let ring)
E|--------------------------| x 3, then E|--------|

Interlude
G|---------------------------------------------------------------|
D|---------------------------------------------------------------|
A|---------------------0-----0-2-3-3-3-3-3-3-3-2-3-2-0---2-0-----|
E|-0-0-0-0-0-0-0-0-2-3---2-3---------------------------3-----3-2-|

Solo
G|-----------------------------------------------------------------|
D|-----------------------------------------------------------------|
A|-----------------2-2-2-2-2-2-2-2-3-3-3-3-3-3-3-3-2-2-2-2-2-2-2-2-|
E|-0-0-0-0-0-0-0-0-------------------------------------------------|

G|-----------------------------------------------|
D|-----------------------------------------------|
A|-----------------3-3-3-3-3-3-3-3-2-2-2-2-2-2-2-|
E|-0-0-0-0-0-0-0-0-------------------------------|

G|-----------------------------------------------------------------|
D|-----------------------------------------------------------------|
A|-----------------2-2-2-2-2-2-2-2-3-3-3-3-3-3-3-3-2-2-2-2-2-2-2-2-|
E|-0-0-0-0-0-0-0-0-------------------------------------------------|

Play verse again then, G|----|
                       D|----|
                       A|----|
                       E|-0**| (let ring
Comments