Megadeth - Dawn Patrol Chords & Tabs

 

Dawn Patrol Chords & Tabs

Megadeth Chords & Tabs

Version: 3 Type: Bass Tab 0 ratings
1 star 2 stars 3 stars 4 stars 5 stars
comments

Dawn Patrol Bass Tab

Dawn Patrol - Megadeth

By: Jon Craven (i_apathy@hotmail.com)
For questions, comments, feedback, an outline of the timing, write the above
address.

Note:
  -Played with a pick.

(4/4)(75 bpm)
Standard tuning

R - quarter rest
\ - slide down
h - hammer-on
p - pull-off
(#) - holding from last riff

Intro pt.1:
|-----|
|-----|
|-----|
|12\--|
[ Tab from: http://www.guitartabs.cc/tabs/m/megadeth/dawn_patrol_btab_ver_3.html ]
Intro pt.2 (verse/outro pt.1):
|------------------|---------------------|------------------|--------------2-0-|
|------------------|---------8h9---7h8---|------------------|------------------|
|5h7--7-775h8--8-88|5h7--7-77---9p8---8p7|5h7--7-775h8--8-88|5h7--7-7\-01------|
|---0--------0-----|---0-----------------|---0--------0-----|---0--------3-----|

|------------------|---------------------|------------------|------------------|
|------------------|---------8h9---7h8---|------------------|------------------|
|5h7--7-775h8--8-88|5h7--7-77---9p8---8p7|5h7--7-775h8--8-88|5h7--7-7\-320-----|
|---0--------0-----|---0-----------------|---0--------0-----|---0----------0---|

Verse: (x2)
Outro pt.1

Outro pt.2: (1:42)(hold till end)
|------------------|
|------------------|
|------------------|
|(0)-*-*-*-*-*-*-*-|
Comments