Megadeth - Crush Em Chords & Tabs

 

Crush Em Chords & Tabs

Megadeth Chords & Tabs

Version: 3 Type: Tab 0 ratings
1 star 2 stars 3 stars 4 stars 5 stars
comments

Crush Em Tab

   
Title: Crush 'Em
Artist: Megadeth
Album: Risk

Instrument: Guitar

Tabbed by: Dave Parker (rabid_penguin@hotmail.com)

Tuning: Standard (E A D G B E)


Intro
E|--------------------------------------------------||
B|--16--16^-----------------------------------------||play 3 times..
G|--13--13^--------------13-----15-13---------------||
D|-----------------------13-----15-13---------------||
A|--------------13h15-------------------------------||
E|--------------------------------------------------||

E|--------------------------------------------------||
B|--16-16-16-16^------------------------------------||then this once
G|--15-15-15-15^-------------------14-----16-14-----||
D|---------------------------------14-----16-14-----||
A|---------------------16-14h16---------------------||
E|--------------------------------------------------||

Verse
E|----------------||
B|----------------||play 8 times..
G|----------4-----||
D|-6-6------4-----||
A|------4h6-------||
E|----------------||

E|----------------||
B|----------------||then play this 8 times
G|----------7-----||
D|-9-9------7-----||
A|------7h9-------||
E|----------------||
[ Tab from: http://www.guitartabs.cc/tabs/m/megadeth/crush_em_tab_ver_3.html ]
Chorus
E|--------------------------------------------------||play once first
B|--------------------------------------------------||time and miss
G|-----2------4---7------------4/2------------------||out the last 
D|--4--2---4--4---7--2---4-----4/2------3-----------||note and play 
A|--4--0---4--2---5--2---4-----2/0------3-----------||twice second
E|--2------2---------0---2--------------1-----------||time round

2nd Verse
Gtr I:(play intro and verse again, over this..)

Gtr II:
E|-----------------||
B|-----------------||
G|-----------------||
D|-----------------||
A|-----------------||
E|-1-1-0-0-1-1-0-0-||

After 2nd Chorus

E|---------------------------------||
B|---------------------------------||Play first riff
G|-------------------3-------------||3 times and then..
D|-3-3---6-----3-3---3-------------||
A|-3-3---6-----3-3---1-------------||
E|-1-1---4-----1-1-----------------||

E|---------------------------------||
B|---------------------------------||switch between the two
G|--------------------6--8---------||twice
D|-3-3---6-----3-3----4--6---------||
A|-3-3---6-----3-3-----------------||
E|-1-1---4-----1-1-----------------||

Then..
E|--------------------------------------------------||
B|--------------------------------------------------||
G|-----3-----5----8----------5/3--------------------||
D|--5--3--5--5----8--3--5----5/3--------------------||
A|--5--1--5--3----6--3--5----3/1--------------------||
E|--3-----3----------1--3---------------------------||

Outro
(play repeatedly until you feel like stopping)
E|---------------------------------||
B|---------------------------------||
G|------------------5--------------||
D|-5-5---8----5-5---5--------------||
A|-5-5---8----5-5---3--------------||
E|-3-3---6----3-3------------------||

E|---------------------------------||
B|---------------------------------||
G|-------------------8--10---------||
D|-5-5---8----5-5----6---8---------||
A|-5-5---8----5-5------------------||
E|-3-3---6----3-3------------------||
Comments